Oops, an error
Loading. Please wait.

Living Dead Girl Tab

version 1
version 1

Whole song

Interactive

21,726 views 12 this week
5 commentsread comments
1 2 3 4 5
x 8
add to favorites
launch autoscroll
font size
0
reset
how to read this tab
guitar tuner
×
Best way to learn
"Living Dead Girl"
Autoscroll
slow
fast
+/-
esc
set tempo
stop
Author
Intro/Chorus
e\-----------------------------
b\-----------------------------
g\-----------------------------
d\8-77--88-77-8-77--10-10-11-12
a\8-77--88-77-8-77--10-10-11-12
e\8-77--88-77-8-77--10-10-11-12

Verse
e\---
b\---
g\---
a\0-0
e\0-0

Last Chorus
e\-------------------------------
b\-------------------------------
g\-------------------------------
d\--------------------10-10-11-12
a\--------------------10-10-11-12
e\88-77--88-77-88-77--10-10-11-12

this is the fist time i've submitted tabs
but it should it pretty close
Suggest correction
comments
print report bad tab
5 comments total. Showing first comments.
0 reply
dragonman5002 50 Oct 11, 2002 08:00 PM

Intro/Chorus
e\-----------------------------
b\-----------------------------
g\-----------------------------
d\8-77--88-77-8-77--10-10-11-12
a\8-77--88-77-8-77--10-10-11-12
e\8-77--88-77-8-77--10-10-11-12

Verse
e\--
b\--
g\--
d\--
a\0-
e\0-

Last Chorus
e\-------------------------------
b\-------------------------------
g\-------------------------------
d\--------------------10-10-11-12
a\--------------------10-10-11-12
e\88-77--88-77-88-77--10-10-11-12

this is the fist time i've submitted tabs
but it should it pretty close

0 reply
dragonman5002 50 Oct 11, 2002 08:00 PM

Intro/Chorus
e\-----------------------------
b\-----------------------------
g\-----------------------------
d\8-77--88-77-8-77--10-10-11-12
a\8-77--88-77-8-77--10-10-11-12
e\8-77--88-77-8-77--10-10-11-12

Verse
e\--
b\--
g\--
d\--
a\0-
e\0-

Last Chorus
e\-------------------------------
b\-------------------------------
g\-------------------------------
d\--------------------10-10-11-12
a\--------------------10-10-11-12
e\88-77--88-77-88-77--10-10-11-12

this is the fist time i've submitted tabs
but it should it pretty close

0 reply
Azizzle 195 Mar 26, 2006 11:24 AM

it sux

guest
You may want to rate the tab now too:
select rating
Wanna post a correction for this tab? Suggest correction