Oops, an error
Loading. Please wait.

Lords Of Salem tab

version 1
version 1

Whole song

Interactive

8,958 views 12 this week
3 commentsread comments
1 2 3 4 5
x 7
add to favorites
×
Save as Personal and add changes to this tab that will be seen only by you. Learn more ›
×
You can save this tab as Personal to edit and correct it or add notes. All changes will be seen only by you. Learn more »
launch autoscroll
font size
0
reset
how to read this tab
guitar tuner
edit
Autoscroll
slow
fast
+/-
esc
set tempo
stop
Author
Difficulty
Uhhh Hi. This is my first tab, and it is the first tab I've seen for ths song. I
appreciate any type of criticism. Its pretty easy. I know i'm missing a small fill after the
bridge, or solo rather. Here it is.

EDIT: Okay, I think its Drop C, but either one is fine. 


e-------------------------------------------|
B-------------------------------------------|
G-------------------------------------------|
D----0-0--12b----0-0--12b-12b-10------------|
A----0-0--12b----0-0--12b-12b-10--|   Intro--| X4
D-\--0-0--12b----0-0--12b-12b-10------------|

* Very small bend, its not a big bend at all.

                                      Verse

e----------------------------------------------------------|
B----------------------------------------------------------|
G----------------------------------------------------------|      X2
D----0-0-----0--0-0--------0-0------0--0-0-----------------|
A----0-0-----0--0-0--------0-0------0--0-0-----------------|
D----0-0-----0--0-0--------0-0------0--0-0---<13>|---------|


                  PM                   PM
e---------------------------------------------------------------|
B---------------------------------------------------------------|
G---------------------------------------------------------------|      X2
D----0-0--1---0--0-0--1-1------0-0--1----0--0-0-----------------|
A----0-0--1---0--0-0--1-1------0-0--1----0--0-0-----------------|
D----0-0--1---0--0-0--1-1------0-0--1----0--0-0---<13>|---------|

           Chorus
e------------------------------------|
B------------------------------------|
G------------------------------------|
D----0-0--12b----0-0--12b-12b-0------|
A----0-0--12b----0-0--12b-12b-0------|
D-\--0-0--12b----0-0--12b-12b-0------|

Verse 2

e----------------------------------------------------------|
B----------------------------------------------------------|
G----------------------------------------------------------|      X2
D----0-0-----0--0-0--------0-0------0--0-0-----------------|
A----0-0-----0--0-0--------0-0------0--0-0-----------------|
D----0-0-----0--0-0--------0-0------0--0-0---<13>|---------|


                  PM                   PM
e---------------------------------------------------------------|
B---------------------------------------------------------------|
G---------------------------------------------------------------|      X2
D----0-0--1---0--0-0--1-1------0-0--1----0--0-0-----------------|
A----0-0--1---0--0-0--1-1------0-0--1----0--0-0-----------------|
D----0-0--1---0--0-0--1-1------0-0--1----0--0-0---<13>|---------|

Chorus 2

e------------------------------------|
B------------------------------------|
G------------------------------------|
D----0-0--12b----0-0--12b-12b-0------|
A----0-0--12b----0-0--12b-12b-0------|
D-\--0-0--12b----0-0--12b-12b-0------|


Bridge/Solo

e---------------------------------------------------------------------|
B---------------------------------------------------------------------|
G-2--4--5-7-------4--5--7--9-------8---7-5-3-------8---7-5-3----------|   X2
D---------------------------------------------------------------------|
A---------------------------------------------------------------------|
D---------------------------------------------------------------------|

Chorus 3

e------------------------------------|
B------------------------------------|
G------------------------------------|
D----0-0--12b----0-0--12b-12b-0------|
A----0-0--12b----0-0--12b-12b-0------|
D-\--0-0--12b----0-0--12b-12b-0------|

Outro

e--------------------------------------------------------------------|
B--------------------------------------------------------------------|
G--------------------------------------------------------------------|
D--------------------------------------------------------------------|
A--000-1---0001------------------------------------------------------|
D--000-1---0001------------------------------------------------------|


Well there it is. Its pretty easy. PM me if you have any questions or anything.

EDIT: Okay, I think its Drop C, but either one is fine. 
Suggest correction
Creating personal tab
Creating personal tab
You can edit any tab online and save it as your Personal.

You can edit, replace or remove any tab part or add personal notes – all changes will be seen only by you.

Personal tabs can be accessed anytime from any device, even offline.
Learn more »
comments
print report bad tab
3 comments total.
+1 reply
green room 41 Mar 25, 2008 03:58 PM

Got a correction here:

Sorry this is a huge correction:

e-------------------------------------------|
B-------------------------------------------|
G-------------------------------------------|
D----0-0--12b----0-0--12b-12b-10-------------|
A----0-0--12b----0-0--12b-12b-10--| Intro--| X4
D-\--0-0--12b----0-0--12b-12b-10-------------|


the correction was the last chord there is 10th fret, not open.

0 reply
Mr Lordi 1,338 Jun 15, 2008 06:32 AM

song should be drop c but other than that good tab

0 reply
Victor Escobar 131 Jan 13, 2009 08:00 PM

e-------------------------------------------|
B-------------------------------------------|
G----------------------------17----------------|
D----0-0--12b----0-0--12b--------------------|
A----0-0--12b----0-0--12b----15---| Intro--| X4
D-\--0-0--12b----0-0--12b-------------------|
Thats how John 5 plays it. Ill tab out the song later,I got the Behind the Player JOhn 5 DVD

guest
You may want to rate the tab now too:
select rating
Wanna post a correction for this tab? Suggest correction