Oops, an error
Loading. Please wait.

More Human Than Human Tab

26,661 views 45 this week
5 commentsread comments
1 2 3 4 5
x 3
add to favorites
launch autoscroll
font size
0
reset
how to read this tab
guitar tuner
×
Best way to learn
"More Human Than Human"
Autoscroll
slow
fast
+/-
esc
set tempo
stop
Tune down 1½ steps

Intro (bass) Play this till 0:40
 E||---------------------------------------------------------------------------|
 B||*-------------------------------------------------------------------------*|
F#||*-------------------------------------------------------------------------*|
C#||--x-x-x-------------x-x-x-x-x-----------x-x-x-x-x-x---------x-x-x-x-x------|
   3rd time through there is female orgasm sample

  guitar comes in at 0:20 (1 guitar)
c#|------------------------------------------------------|
F#|*----------------------------------------------------*|
 E|------------------------------------------------------|
 B|--2--2--rest----------------2--2--rest----------------|
F#|*-2--2----------------------2--2---------------------*|
C#|--0--0----------------------0--0----------------------|

  Use metal slide  hold hole time
             ________________     _________     __________     ___
            /                \   /         \   /          \   /   \
C#|---------3////////12---(12)\-\4/14---(14)\-\4//15---(15)\-\5-----17-----|
F#|---------3////////12---(12)\-\4/14---(14)\-\4//15---(15)\-\5//17----17\-|
 E|---------3////////12---(12)\-\4/14---(14)\-\4//15---(15)\-\5//17----17\-|
 B|---------3////////12---(12)\-\4/14---(14)\-\4//15---(15)\-\5//17----17\-|
F#|------------------------------------------------------------------------|
C#|------------------------------------------------------------------------|
     __________     __________     __________     __     ___
    /          \   /          \   /          \   /  \   /   \
C#|\3//12---(12)\-\4//14---(14)\-\4//15---(15)\-\4-12\--12\10--12\-|
F#|\3//12---(12)\-\4//14---(14)\-\4//15---(15)\-\4-12\--12\10--12\-|
 E|\3//12---(12)\-\4//14---(14)\-\4//15---(15)\-\4-12\--12\10--12\-|
 B|\3//12---(12)\-\4//14---(14)\-\4//15---(15)\-\4-12\--12\10--12\-|
F#|----------------------------------------------------------------|
C#|----------------------------------------------------------------|

     ______      _________      ________      __
    /      \    /         \    /        \    /  \
C#|-12---(12)\-\4//14---(14)\-\4/15---(15)\-\5----17------|
F#|-12---(12)\-\4//14---(14)\-\4/15---(15)\-\5/17----17\--|
 E|-12---(12)\-\4//14---(14)\-\4/15---(15)\-\5/17----17\--|
 B|-12---(12)\-\4//14---(14)\-\4/15---(15)\-\5/17----17\--|
F#|-*-----------------------------------------------------|
C#|-------------------------------------------------------|

     ________________________________________
    /                                        \
C#|-3//////////////////////7////////////////26\-----------|
F#|-3//////////////////////7////////////////26\-----------|
 E|-3//////////////////////7////////////////26\---silence-|
 B|-3//////////////////////7////////////////26\-----------|
F#|--start-slow---------------------end-fast$-------------|
C#|-------------------------------------------------------|
                           $ = over pickups
  
   Yeeeah   I am the astro creep   a demolition style hell A-mer-I-can freak
C#|--Singing-starts-at-1:07---------------------------------------------------|
F#|---------------------------------------------------------------------------|
 E|---------------------------------------------------------------------------|
 B|---------------------------------------------------------------------------|
F#|---------------------------------------------------------------------------|
C#|---------------------------------------------------------------------------|
  
  Yeah   I am the crawling dead,  A phantom in a box, shadow in head.   Say
C#|---------------------------------------------------------------------------|
F#|---------------------------------------------------------------------------|
 E|---------------------------------------------------------------------------|
 B|---------------------------------------------------------------------------|
F#|---------------------------------------------------------------------------|
C#|---------------------------------------------------------------------------|
  
      Acid   a  suicide,  freedom of the blast.  Read the fuckin lies.  Yeah
C#|------------------------------------------------------------------------|
F#|------------------------------------------------------------------------|
 E|------------------------------------------------------------------------|
 B|-2---2--rest------------2---2--rest-------------------------------------|
F#|-2---2------------------2---2-------------------------------------------|
C#|-0---0------------------0---0-------------------------------------------|
  
      Scratch off the broken skin. Tear in to my heart, make me do it again. Yeah
C#|------------------------------------------------------------------------------|
F#|------------------------------------------------------------------------------|
 E|------------------------------------------------------------------------------|
 B|-2---2--rest---------------------2---2--rest----------------------------------|
F#|-2---2---------------------------2---2----------------------------------------|
C#|-0---0---------------------------0---0----------------------------------------|
  
                   yeah More hu-man than hu-man
C#|---------------------||--------------------------------|
F#|*---(play-4x)-------*||*-------(play-6x)-----(*-=-6th)*|
 E|------rest------rest-||---------------------(time-only)|
 B|--2--2----2-2--2-----||--2--2----------2--2----------2-|
F#|*-2--2----2-2--2----*||*-2--2--2-2-2-2-2--2--2-2-2-2-2*|
C#|--0--0----0-0--0-----||--0--0--0-0-0-0-0--0--0-0-0-0-0-|
                                   pm……………       pm…………… *
                                                                   
             ________________     _________     __________     ___
            /                \   /         \   /          \   /   \
C#|(use-----3////////12---(12)\-\4/14---(14)\-\4//15---(15)\-\5-----17-----|
F#|--metal--3////////12---(12)\-\4/14---(14)\-\4//15---(15)\-\5//17----17\-|
 E|---slide)3////////12---(12)\-\4/14---(14)\-\4//15---(15)\-\5//17----17\-|
 B|---------3////////12---(12)\-\4/14---(14)\-\4//15---(15)\-\5//17----17\-|
F#|------------------------------------------------------------------------|
C#|------------------------------------------------------------------------|

     __________     __________     __________     __     ___
    /          \   /          \   /          \   /  \   /   \
C#|\3//12---(12)\-\4//14---(14)\-\4//15---(15)\-\4-12\--12\10--12\-|
F#|\3//12---(12)\-\4//14---(14)\-\4//15---(15)\-\4-12\--12\10--12\-|
 E|\3//12---(12)\-\4//14---(14)\-\4//15---(15)\-\4-12\--12\10--12\-|
 B|\3//12---(12)\-\4//14---(14)\-\4//15---(15)\-\4-12\--12\10--12\-|
F#|----------------------------------------------------------------|
C#|----------------------------------------------------------------|

     ______      _________      ________      __
    /      \    /         \    /        \    /  \
C#|-12---(12)\-\4//14---(14)\-\4/15---(15)\-\5----17-----|
F#|-12---(12)\-\4//14---(14)\-\4/15---(15)\-\5-17----17\-|
 E|-12---(12)\-\4//14---(14)\-\4/15---(15)\-\5-17----17\-|
 B|-12---(12)\-\4//14---(14)\-\4/15---(15)\-\5-17----17\-|
F#|------------------------------------------------------|
C#|------------------------------------------------------|

     ________________________________________
    /                                 Y-e-a-h\   I am the
C#|-3//////////////////////7////////////////26\----------|
F#|-3//////////////////////7////////////////26\----------|
 E|-3//////////////////////7////////////////26\--silence-|
 B|-3//////////////////////7////////////////26\----------|
F#|--start-slow---------------------end-fast$------------|
C#|------------------------------------------------------|
  
   jigsaw man.   I turn the world around with a skelaton hand.  Say
C#|----------------------------------------------------------------------|
F#|----------------------------------------------------------------------|
 E|----------------------------------------------------------------------|
 B|----------------------------------------------------------------------|
F#|----------------------------------------------------------------------|
C#|----------------------------------------------------------------------|
  
   I am electric head. A cannibal core a television said.  Yeah
C#|----------------------------------------------------------------|
F#|----------------------------------------------------------------|
 E|----------------------------------------------------------------|
 B|----------------------------------------------------------------|
F#|----------------------------------------------------------------|
C#|----------------------------------------------------------------|
  
        Do  not vict-im-izeuicide, read the mother fucker psycoholic lies, yeah.
C#|----------------------------------------------------------------------------|
F#|----------------------------------------------------------------------------|
 E|----------------------------------------------------------------------------|
 B|-2---2--rest---------------------2---2--rest--------------------------------|
F#|-2---2---------------------------2---2--------------------------------------|
C#|-0---0---------------------------0---0--------------------------------------|
  
     In  to  a psychic  war.  I tear my soul apart and I eat it some more, yeah.
C#|----------------------------------------------------------------------------|
F#|----------------------------------------------------------------------------|
 E|----------------------------------------------------------------------------|
 B|-2---2--rest------------------2---2-rest------------------------------------|
F#|-2---2------------------------2---2-----------------------------------------|
C#|-0---0------------------------0---0-----------------------------------------|
  
                   Yeah      More hu-man  than hu-man
C#|---------------------||--------------------------------|
F#|*---(play-4x)-------*||*-------(play-6x)-----(*-=-6th)*|
 E|------rest------rest-||---------------------(time-only)|
 B|--2--2----2-2--2-----||--2--2----------2--2---------(2)|
F#|*-2--2----2-2--2----*||*-2--2--2-2-2-2-2--2--2-2-2-2(2*|
C#|--0--0----0-0--0-----||--0--0--0-0-0-0-0--0--0-0-0-0(0)|
                                  pm……………       pm……………(*)
             ________________     _________     __________     ___
            /                \   /         \   /          \   /   \
C#|(use-----3////////12---(12)\-\4/14---(14)\-\4//15---(15)\-\5-----17-----|
F#|--metal--3////////12---(12)\-\4/14---(14)\-\4//15---(15)\-\5//17----17\-|
 E|---slide)3////////12---(12)\-\4/14---(14)\-\4//15---(15)\-\5//17----17\-|
 B|---------3////////12---(12)\-\4/14---(14)\-\4//15---(15)\-\5//17----17\-|
F#|------------------------------------------------------------------------|
C#|------------------------------------------------------------------------|

     __________     __________     __________     __     ___
    /          \   /          \   /          \   /  \   /   \
C#|\3//12---(12)\-\4//14---(14)\-\4//15---(15)\-\4-12\--12\10--12\-|
F#|\3//12---(12)\-\4//14---(14)\-\4//15---(15)\-\4-12\--12\10--12\-|
 E|\3//12---(12)\-\4//14---(14)\-\4//15---(15)\-\4-12\--12\10--12\-|
 B|\3//12---(12)\-\4//14---(14)\-\4//15---(15)\-\4-12\--12\10--12\-|
F#|----------------------------------------------------------------|
C#|----------------------------------------------------------------|

     ______      _________      ________      __
    /      \    /         \    /        \    /  \
C#|-12---(12)\-\4//14---(14)\-\4/15---(15)\-\5----17-----|
F#|-12---(12)\-\4//14---(14)\-\4/15---(15)\-\5-17----17\-|
 E|-12---(12)\-\4//14---(14)\-\4/15---(15)\-\5-17----17\-|
 B|-12---(12)\-\4//14---(14)\-\4/15---(15)\-\5-17----17\-|
F#|------------------------------------------------------|
C#|------------------------------------------------------|

     ________________________________________
    /                                        \                               Yeah
C#|-3//////////////////////7////////////////26\-----------------------------------|
F#|-3//////////////////////7////////////////26\--------------(neck)---------------|
 E|-3//////////////////////7////////////////26\-------------(pickup)--------------|
 B|-3//////////////////////7////////////////26\-----2--2-rest-2--2-rest-2--2-rest-|
F#|--start-slow---------------------end-fast$-------2--2------2--2------2--2------|
C#|-------------------------------------------------0--0------0--0------0--0------|


************************************

| x    Dead note
| /    Slide up
| \    Slide down
| (n)  Ghost note

************************************
Suggest correction
Give kudos to tab author, rate the tab!
1 2 3 4 5
comments
print report bad tab
5 comments total. Showing first comments.
0 reply
rebornmaster9 154 May 06, 2008 07:09 AM

not bad not bad to bad i can't do slide guitar :(

0 reply
inBLOOMman 30 Mar 30, 2009 03:52 PM

i don't want to be the ******* but its by white zombie...oh and good tab

0 reply
darksarcasm 10 Nov 13, 2009 10:25 AM

awesome tab,but what do you mean by 26? Do mean to slide past the last frets adn to the pickups?

guest
You may want to rate the tab now too:
select rating
Wanna post a correction for this tab? Suggest correction