Oops, an error
Loading. Please wait.

Pussy Liquor bass

version 1
version 1

Whole song

Interactive

8,878 views 21 this week
2 commentsread comments
1 2 3 4 5
x 12
add to favorites
×
Save as Personal and add changes to this tab that will be seen only by you. Learn more ›
×
You can save this tab as Personal to edit and correct it or add notes. All changes will be seen only by you. Learn more »
launch autoscroll
font size
0
reset
guitar tuner
backing track
0:00
0:00
edit
Autoscroll
slow
fast
+/-
esc
set tempo
stop
Author
Band: Rob Zombie
Bassist: Blasko
Song: Pussy Liquor
Album: House of 1000 Corpses Soundtrack
Tuning: Standard EADG
Notes: This is an awesome bass riff, and bass basically dominates this song.

   Main Riff
G:------------------------------------------------------------------------------------|
D:------------------------------------------------------------------------------------|
A:-----------1------------------1------------------1----------------------------------|
E:--1--4--1----4--1--1--4--1----4--1--1--4--1----4--1---------------------------------|

   Verse
G:-----------------------------------------------------------------------------------|
D:-----------------------------------------------------------------------------------|
A:----------------------------1------------------------------------------------------|
E:--1-----1--1----1--1----1---4------------------------------------------------------|

Listen to the song to get the correct timing and order. This is a really fun song to play.
Enjoy

            
            
Suggest correction
Creating personal tab
Creating personal tab
You can edit any tab online and save it as your Personal.

You can edit, replace or remove any tab part or add personal notes – all changes will be seen only by you.

Personal tabs can be accessed anytime from any device, even offline.
Learn more »
comments
print report bad tab
2 comments total.
0 reply
Death2Preps 51 Dec 30, 2008 02:01 PM

Yo great tab. The only thing I would do differently is during the main part I would just keep playing the first part. Other than that great tab.

0 reply
thomas.yenichek 10 Mar 29, 2013 02:58 PM

Main Riff (listen for timing)
G:---------------------------------------------------|
D:---------------------------------------------------|
A:-------1-------------1----------1------------------|
E:-1-4-1---4--1-1--4-1---4--1-4-1---4-1--------------|

Verse (listen for timing and let last note ring)
G:---------------------------------------------------|
D:---------------------------------------------------|
A:---------------------------------------------------|
E:--1---1-2---4-1------------------------------------|

I tabbed this by ear, so If you guys have any input please make a correction

guest
You may want to rate the tab now too:
select rating
Wanna post a correction for this tab? Suggest correction