Oops, an error
Loading. Please wait.

What tab

version 1
version 1

Whole song

Interactive

11,218 views 3 this week
6 commentsread comments
1 2 3 4 5
x 6
add to favorites
×
Save as Personal and add changes to this tab that will be seen only by you. Learn more ›
×
You can save this tab as Personal to edit and correct it or add notes. All changes will be seen only by you. Learn more »
launch autoscroll
font size
0
reset
how to read this tab
guitar tuner
edit
Autoscroll
slow
fast
+/-
esc
set tempo
stop
-------------------------------------------------------------------------------
                             WHAT? - Rob Zombie
-------------------------------------------------------------------------------
Tabbed by: ironmanben
Email: bentrooper@gmail.com

Tuning: full step down drop D (d A F C G C)

Main Riff:
(both guitars)
                  x3                      x1
e|----------------|-----------------------|
B|----------------|-----------------------|
G|----------------|-----------------------|
D|----------------|-----------------------|
A|----------------|-----------------------|
E|-5-5--5-5-4-3-0-|-5/8-8-8-8-10-10-10-10-|

Main Riff 2:
                  x3                      x1
e|----------------|-----------------------|
B|----------------|-----------------------|
G|----------------|-----------------------|
D|----------------|-----------------------|
A|----------------|-----------------------|
E|-5-5--5-5-4-3-0-|-5/8-8-8-8-10-10-10-10-|

                  x3                      x1
e|----------------|-----------------------|
B|----------------|-----------------------|
G|----------------|-----------------------|
D|----------------|-----------------------|
A|----------------|-----------------------|
E|-5-5------------|---8-8---8-10-10----10-|

Riff 2:
(both guitars)
e|--------------------------------------------------------------|
B|--------------------------------------------------------------|
G|-8-8-8-8-8-8-8-8-7-7-7-7-5-5-5-5------------------------------|
D|-8-8-8-8-8-8-8-8-7-7-7-7-5-5-5-5------------------------------|
A|-6-6-6-6-6-6-6-6-5-5-5-5-3-3-3-3------------------------------|
E|---------------------------------5-5--5-5-5--5-5-5--5-5-4-3-0-|

Main Riff 3:
e|----------------------------------------------|-----------------------|
B|----------------------------------------------|-----------------------|
G|----------------------------------------------|-----------------------|
D|----------------------------------------------|-----------------------|
A|----------------------------------------------|-----------------------|
E|-5-5--5-5-4-3-0----------------5-5--5-5-4-3-0-|-5/8-8-8-8-10-10-10-10-|

e|----------------------------------------------|-----------------------|
B|----------------------------------------------|-----------------------|
G|----------------------------------------------|-----------------------|
D|----------------------------------------------|-----------------------|
A|----------------------------------------------|-----------------------|
E|----------------5-5--5-5-4-3-0-5-5--5-5-4-3-0-|-----------------------|

Main Riff 4:
                  x3                      x1
e|----------------|-----------------------|
B|----------------|-----------------------|
G|----------------|-----------------------|
D|----------------|-----------------------|
A|----------------|-----------------------|
E|-5-5--5-5-4-3-0-|-5/8-8-8-8-10-10-10-10-|

                  x3                      x1                     
e|----------------|-----------------------|
B|----------------|-----------------------|
G|----------------|-----------------------|
D|-7-7--7-7-6-5-2-|-7/9-9-9-9-12-12-11-11-|
A|-7-7--7-7-6-5-2-|-7/9-9-9-9-12-12-11-11-|
E|-5-5--5-5-4-3-0-|-5/8-8-8-8-10-10-10-10-|

Bridge:
e|-----------------------|---------------------|
B|-----------------------|---------------------|
G|-----------------------|---------------------|
D|-----------------------|---------------------|
A|-----------------------|---------------------|
E|-5-5---5-5-5---5-5-5---|-5/8--8-8--10--10-10-|

e|-----------------------|---------------------|
B|-----------------------|---------------------|
G|-----------------------|---------------------|
D|-7-7-----7-7-----7-7---|-10-10-10-12--10--10-|
A|-7-7-----7-7-----7-7---|-10-10-10-12--10--10-|
E|-5-5-----5-5-----5-5---|-8--8--8--10--10--10-|

Bridge 2:
e|-----------------------|---------------------|
B|-----------------------|---------------------|
G|-----------------------|---------------------|
D|-----------------------|---------------------|
A|-----------------------|---------------------|
E|-5-5-------------------|-5/8--8-8--10--10-10-|

e|-----------------------|---------------------|
B|-----------------------|---------------------|
G|-----------------------|---------------------|
D|-7-7-------------------|-10-10-10-12--12--12-|
A|-7-7-------------------|-10-10-10-12--12--12-|
E|-5-5-------------------|-8--8--8--10--10--10-|

Order:
Main Riff-----x2
Main Riff 2---x3
Riff 2--------x2
Main Riff 3---x1
Main Riff-----x1
Main Riff 2---x3
Riff 2--------x2
Keyboard Fill-x1
Main Riff 4---x1
Bridge--------x2
Bridge 2------x1
Riff 2--------x2
Main Riff 2---x2



| /  slide up
| \  slide down
| h  hammer-on
| p  pull-off
| ~  vibrato
| +  harmonic
| x  Mute note
===============================================================================

            
            
Suggest correction
Creating personal tab
Creating personal tab
You can edit any tab online and save it as your Personal.

You can edit, replace or remove any tab part or add personal notes – all changes will be seen only by you.

Personal tabs can be accessed anytime from any device, even offline.
Learn more »
comments
print report bad tab
6 comments total. Showing first comments.
0 reply
resjunkie 20 Jan 01, 2010 06:46 PM

Hey man good job. i tryed your tab and im pretty sure its all right. not sure about the chorus because its too muddy with all the distortion But good job.

+2 reply
Beast_89 10 Feb 12, 2010 03:06 AM

Sounds pretty good, but I think the chorus should be played like this:
D||--------------------------|--------------------------|
A||--------------------------|--------------------------|
F||--8--8--8--8--8--8--8--8--|--7--7--7--7--5--5--5--5--|
C||--8--8--8--8--8--8--8--8--|--7--7--7--7--5--5--5--5--|
G||--6--6--6--6--6--6--6--6--|--5--5--5--5--3--3--3--3--|
C||--------------------------|--------------------------|

0 reply
Gates666 10 Apr 27, 2010 02:55 PM

i havent even tried to play it, but it looks good, so its good as far as i know good job

guest
You may want to rate the tab now too:
select rating
Wanna post a correction for this tab? Suggest correction