Oops, an error
Loading. Please wait.

Talk To Your Daughter Tab

24,858 views 39 this week
2 commentsread comments
1 2 3 4 5
x 4
add to favorites
launch autoscroll
font size
0
reset
how to read this tab
guitar tuner
backing track
0:00
0:00
×
Best way to learn
"Talk To Your Daughter"
Autoscroll
slow
fast
+/-
esc
set tempo
stop
Tuning
E A D G B E
#-----------------------------------------------------------------------------#
#-- File created with Instab - http://www.pconline.com/~smcarey/instab.html --#
#-----------------------------------------------------------------------------#

Author/Artist: Robben Ford
Title: Talk to your Daughter
Album: Talk to your Daughter
Transcribed by: Geoff Lea 
Email: Geosouthuk@aol.com

Great Solo , Essentially in G minor but many other tit bits can be gleended from this masterful display.
Notice the very close relationship of melody note and chord tone thoughtout the solo.
The Progression is basically a Dominant 12 Bar in G, one or 2 little turnarounds, nothing scarey.
Try to spot where Robben uses arpeggios to outline certain changes, and notice how he plays effortlessly through the changes.


Intro lick 

-------3--------3--------3-|-------3-------3-------3--------3-|---------------
-----3--------3--------3---|-----3-------3-------3--------3---|---------------
-5b7------5b7------5b7-----|-5b7-----5b7-----5b7------5b7-----|---------------
---------------------------|----------------------------------|---------------
---------------------------|----------------------------------|---------------
---------------------------|----------------------------------|---------------
 



G7                                                                             

---------|--------------------------|----10-12----------------------|---------
-6/8-----|-13b15---r13-11-----11-13-|-12-------10--10---------------|---------
---------|----------------12--------|-----------------12-10---------|---------
---------|--------------------------|-----------------------10-8----|-898-----
---------|--------------------------|----------------------------10-|---------
---------|--------------------------|-------------------------------|---------
 


             C7                                             G7                   

-------------|----------------------------|-----------------|-------------|---
---8-11-8-10-|--8-------------------------|-----------------|------35-3-5-|---
-9-----------|--11b----10-7---------------|--5b6-3-5-3------|---4---------|---
-------------|---------------11-10-8-----8|-------------5-2-|-5-----------|---
-------------|-----------------------10---|-----------------|-------------|---
-------------|----------------------------|-----------------|-------------|---

 


                          D7               C7              G7     /B    C                  

--------------------------|-8--10-6--------|---------3-----|--------------3---
----------10----11----11b-|----------8-8-6-|--6-b-8----3-6-|----3-----3-5-----
-------12----12----12-----|----------------|---------------|--5---3-4---------
----12--------------------|----------------|---------------|------------------
-10-----------------------|----------------|---------------|------------------
--------------------------|----------------|---------------|------------------




C#dim   D7                    G7                                                       

---6b-|----6-7-8-6-7-8-6-7-8-|--8b10-v-v-v-|-vvvvvvvv|-r-6-8-6-|-------12-10--
-8----|--8-------------------|-------------|---------|---------|--------------
------|----------------------|-------------|---------|---------|--------------
------|----------------------|-------------|---------|---------|--------------
------|----------------------|-------------|---------|---------|--------------
------|----------------------|-------------|---------|---------|--------------
 

             C7                                        G7                        

------------|---------------|-----------15-10-13----10-|-----10-12----------|-
-11-10------|----10----10-b-|--11-13b15----------13----|-11b-------10-10----|-
-------12-9-|-12----12------|--------------------------|-----------------12-|-
------------|---------------|--------------------------|--------------------|-
------------|---------------|--------------------------|--------------------|-
------------|---------------|--------------------------|--------------------|-



                           D7            C7         G7       D7     C7                  

-13-13-13-13-13-------13-|-------------|-----------|-------|-------|--20b22---
----------------13b15----|-------------|-----------|-------|-------|----------
-------------------------|-------------|-----------|-------|-------|----------
-------------------------|-------------|-----------|-------|-------|----------
-------------------------|-------------|-----------|-------|-------|----------
-------------------------|-------------|-----------|-------|-------|----------
 


                                   G7                                          

-18-b20-18|--15-------------------|------15-15-15|--17b-17--15-17-15-----|----
----------|-----18-15-------------|---17---------|-----------------------|----
----------|-----------18-17-15----|--------------|-----------------------|----
----------|--------------------17-|--------------|-----------------------|----
----------|-----------------------|--------------|-----------------------|----
----------|-----------------------|--------------|-----------------------|----





 C7                                         E9       Eb9     D9   C7       G7              

-15\----/--20b22|----18-20--18------------|---14-17--13-17-|------18-15-|-----
----------------|--------------20----20-v-|----------------|-17-v-------|-----
----------------|-----------------19------|----------------|------------|-----
----------------|-------------------------|----------------|------------|-----
----------------|-------------------------|----------------|------------|-----
----------------|-------------------------|----------------|------------|-----
Suggest correction
comments
print report bad tab
2 comments total.
-1 reply
cyofish 10 Oct 18, 2005 06:46 PM

The song is in the key of G. Robben uses G mixolydian and G blues scale throught the solo.

0 reply
matteo.carrozzo 20 a day ago

Very precise and useful.
Awesome tab.

guest
You may want to rate the tab now too:
select rating
Wanna post a correction for this tab? Suggest correction