Oops, an error
Loading. Please wait.

A Place To Crash Bass Tab

246 views 1 this week
no commentswrite comment
1 2 3 4 5
2 more votes to show rating
add to favorites
launch autoscroll
font size
0
reset
guitar tuner
Autoscroll
slow
fast
+/-
esc
set tempo
stop
Help us to improve Ultimate-Guitar.com Take our survey!
×
Author
Difficulty
novice
Artist: Robbie Williams
Song: A Place To Crush
Album: Intensive Care (2005)
Bassist: Davey Farragher
Tuning: Standard

Intro:

G|----------------------------------------------------|
D|----------------------------------------------------|
A|5---5-5---5-5---3-5-3-5-5-3---3-3---3-3---2-3-2-3-5-|
E|----------------------------------------------------|

G|----------------------------------------------------------|
D|----------------------------------------------------------|
A|------------------2-2-3-4-5-5-5-5-5-5-5-5-5-5-5-5-5-5-2-0-|
E|3---3-3---3-3---3-----------------------------------------|

Verse: (there are just some minor differences between those verses so take
one and play it)

G|----------------------------------------------------|
D|----------------------------------------------------|
A|5---5-5---5-5---3-5-3-5-5-3---3-3---3-3---2-3-3-3-5-|
E|----------------------------------------------------|

G|----------------------------------------------------------|
D|----------------------------------------------------------|
A|------------------2-2-3-4-5-5-5-5-5-5-5-5-5-5-5-5-5-5-2-0-|
E|3---3-3---3-3---3-----------------------------------------| 

G|----------------------------------------------------|
D|----------------------------------------------------|
A|5---5-5---5-5---3-5-3-5-5-3---3-3---3-3---2-3-2-3-5-|
E|----------------------------------------------------|

G|----------------------------------------------------------|
D|----------------------------------------------------------|
A|------------------2-2-3-4-5-5-5-5-5-5-5-5-5-5-2-0-5-5-2-0-|
E|3---3-3---3-3---3-----------------------------------------|

G|----------------------------------------------------|
D|----------------------------------------------------|
A|5---5-5---5-5---3-5-3-5-5-3---3-3---3-3---2-3-2-3-5-|
E|----------------------------------------------------|

G|----------------------------------------------------------|
D|----------------------------------------------------------|
A|------------------2-2-3-4-5-5-5-5-5-5-5-5-5-5-5-5-5-5-5-5-|
E|3---3-3---3-3---3-----------------------------------------|

Chorus:

G|-----------------------------------------------------|
D|-----------------------------------------------------|
A|3---3-3--3-3------------3-5---5-5---5-5--5-5-5-5-5-5-|
E|-------------3---3-3--3------------------------------|

G|-----------------------------------------------------|
D|-----------------------------------------------------|
A|3---3-3--3-5------------3-5---5-5---5-5--5-5-5-5-5-5-|
E|-------------3---3-3--3------------------------------|

G|-----------------------------------------------------|
D|-----------------------------------------------------|
A|------------------------3-5---5-5--5-5-5-5-5-5-5-5-5-|
E|0---0-0--0-2-3---3-3--3------------------------------|

G|------------------------------------------------------------|
D|------------------------------------------------------------|
A|--------------------------3-5-5-5-5-5-5-5-5-5-5-5-5-5-0-2-0-|
E|0---0-0--0-2-3--3-3-3-3-3-----------------------------------|

Bridge:

G|------------------4-5-6-7---------------------------|
D|--------------------------------------------2-3-4-5-|
A|5---5-5---5-5---5---------3---3-3---3-3---3---------|
E|----------------------------------------------------|

G|----------------------------------------------------------|
D|----------------------------------------------------------|
A|------------------2-2-3-4-5-5-5-5-5-5-5-5-5-5-2-0-5-5-2-0-|
E|3---3-3---3-3---3-----------------------------------------|

Verse:

G|------------------4-5-6-7---------------------------|
D|--------------------------------------------2-3-4-5-|
A|5---5-5---5-5---5---------3---3-3---3-3---3---------|
E|----------------------------------------------------|

G|----------------------------------------------------------|
D|----------------------------------------------------------|
A|------------------2-2-3-4-5-5-5-5-5-5-5-5-5-5-2-0-5-5-2-0-|
E|3---3-3---3-3---3-----------------------------------------|

G|------------------4-5-6-7---------------------------|
D|--------------------------------------------2-3-4-5-|
A|5---5-5---5-5---5---------3---3-3---3-3---3---------|
E|----------------------------------------------------|

G|----------------------------------------------------------|
D|----------------------------------------------------------|
A|----3-------------2-2-3-4-5-5-5-5-5-5-5-5-5-5-2-0-5-5-2-0-|
E|3-----3---3-3---3-----------------------------------------|

G|-----------------------------------------------------|
D|-----------------------------------------------------|
A|5---5-5---5-5--5-3-5-3-5-5-3---3-3---3-3---2-3-2-3-5-|
E|-----------------------------------------------------|

G|----------------------------------------------------------|
D|----------------------------------------------------------|
A|------------------2-2-3-4-5-5-5-5-5-5-5-5-5-5-5-5-5-5-5-5-|
E|3---3-3---3-3---3-----------------------------------------|

Chorus:

G|-------------------------------------------------------|
D|-------------------------------------------------------|
A|3---3-3--3-3------------3-5---5-5--5-5-5-5-5-5-5-5-5-5-|
E|-------------3---3-3--3--------------------------------|

G|-------------------------------------------------------|
D|-------------------------------------------------------|
A|3---3-3--3-5------------3-5---5-5--5-5-5-5-5-5-5-5-5-5-|
E|-------------3---3-3--3--------------------------------|

G|----------------------------------------------------------|
D|----------------------------------------------------------|
A|------------------------3-5-5-5-5-5-5-5-5-5-5-5-5-5-5-5-5-|
E|0---0-0--0-2-3---3-3--3-----------------------------------|

G|----------------------------------------------------------|
D|----------------------------------------------------------|
A|------------------------3-5-5-5-5-5-5-5-5-5-5-5-5-5-5-5-3-|
E|0---0-0--0-2-3---3-3--3-----------------------------------|


G|---------------------------------------------------------|
D|---------------------------------------------------------|
A|1--1--1-3-1-0--0-0--0-1-2-3--3-3--3-3-5------------------|
E|----------------------------------------3--3-3-3-3-3-3-3-|

G|---------------------------------------------------------|
D|---------------------------------------------------------|
A|1--1--1-3-1-0--0-0--0-1-2-3--3-3--3-5-3------------------|
E|----------------------------------------3--3-3--3--3-----|

Every next pair of notes play more quietly

G|----------------------------------------------------------------|
D|---------------------------------------------12-12-12-12-12-12\-|
A|5--5----5--5----5--5----5--5~-----------------------------------|
E|----------------------------------------------------------------|

Bridge:

G|----------------------------------------------------|
D|----------------------------------------------------|
A|5---5-5---5-5---3-5-3-5-5-3---3-3---3-3---2-3-2-3-5-|
E|----------------------------------------------------|

G|---------------------------------------------------------|
D|---------------------------------------------------------|
A|-----------------2-2-3-4-5-5-5-5-5-5-5-5-5-5-2-0-5-5-2-0-|
E|3---3-3---3-3--3-----------------------------------------|

Verse:

G|------------------4-5-6-7---------------------------|
D|--------------------------------------------2-3-4-5-|
A|5---5-5---5-5---5---------3---3-3---3-3---3---------|
E|----------------------------------------------------|

G|----------------------------------------------------------------|
D|----------------------------------------------------------------|
A|------------------2-2-3-4-5-5-5-5-5-5-5-5-5-5-5/17-17-17-17-17\-|
E|3---3-3---3-3---3-----------------------------------------------|

G|------------------4-5-6-7---------------------------|
D|--------------------------------------------2-3-4-5-|
A|5---5-5---5-5---5---------3---3-3---3-3---3---------|
E|----------------------------------------------------|

G|----------------------------------------------------------|
D|----------------------------------------------------------|
A|------------------2-2-3-4-5-5-5-5-5-5-5-5-5-5-2-0-5-5-2-0-|
E|3---3-3---3-3---3-----------------------------------------|

Ending:

G|------------------------------------------------------|
D|------------------------------------------------------|
A|5---5-5---5-5-5-3-0-5-3-5-5-3---3-3---3-3---2-3-2-3-5-|
E|------------------------------------------------------|

G|----------------------------------------------------------|
D|----------------------------------------------------------|
A|------------------2-2-3-4-5-5-5-5-5-5-5-5-5-3-3-5~--------|
E|3---3-3---3-3---3-----------------------------------------|

/  slide up
\  slide down
h  hammer-on
p  pull-off
~  let ring
Suggest correction
Give kudos to tab author, rate the tab!
1 2 3 4 5
comments
print report bad tab
guest
You may want to rate the tab now too:
select rating
Wanna post a correction for this tab? Suggest correction