Oops, an error
Loading. Please wait.

Aint That A Kick In The Head Bass Tab

798 views 6 this week
no commentswrite comment
1 2 3 4 5
1 last vote to show rating
add to favorites
launch autoscroll
font size
0
reset
guitar tuner
Autoscroll
slow
fast
+/-
esc
set tempo
stop
Help us to improve Ultimate-Guitar.com Take our survey!
×
Author
Difficulty
intermediate
Ain?t That a Kick in the Head

Dean Martin/Robbie Williams

Bass Tab by Jam

Standard Tuning

This Robbie Williams version of Dean Martin's Ain't That a Kick in the Head is in a slightly higher key so 
you'll have to take it down a semitone (one fret) if you want to play along to Dean's version. I will try and
re-do this tab so that it suits Dean's version shortly!

Each bar is split into 16 so I have tried to represent the note timing, lyric wise due to the formatting I cant
get the words in quite the right place but they are more for reference anyway!


Intro
                                                               1. How
G|8-8-7---8-8-7---|8-8-7-8---------|----------------|----------3-----|
D|----------------|----------4-3-2-|1-1-0---1-1-0---|1-1-2-3---------|
A|----------------|----------------|----------------|-------------1--|
E|----------------|----------------|----------------|----------------|

Verse 1 and 2

 1. lucky can one guy be       I kissed her and she kissed me (1.2.) Like a
 2. instrumental
G|| ----------------|----------------|----------------|----------------|
D||.1-------0-------|----------------|1-------0-------|----------------|
A||.----------------|3-------1-------|----------------|3-------1-------|
E|| ----------------|----------------|----------------|----------------|

 fellow once said, Ain't that a kick in the head?              1. Her 
                                                               2. instrumental
G|----------------|----------------|----------------|----------------|
D|1---------------|1-------2-------|3---------------|----------------|
A|--------1-------|----------------|--------3----3--|4-----5---------|
E|----------------|----------------|----------------|----------------|

room was completely black      I hugged her and she hugged back (1.2) Like the

G|----------------|----------------|----------------|----------------|
D|3---------------|3-------3-------|3-------3-------|--------3-------|
A|--------3-------|------------3---|----------------|3-----------0---|
E|----------------|----------------|----------------|----------------|

sailor said quote, ain't that a hole in the boat?        My head keeps

G|----------------|----------------|----------------|----------------|
D|--------3-------|------------0---|1---------------|1---0-----------|
A|1---------------|1-------3-------|--------1---1---|--------3---1---|
E|----------------|----------------|----------------|----------------|

      spinning, I  go to sleep and keep grinnin', if this is just the be-

G|0---------------|0---2---4---0---|------------0---|5---0-----------|
D|----0-------0---|----------------|----0---1-------|--------1-------|
A|--------2-------|----------------|3---------------|------------3---|
E|----------------|----------------|----------------|----------------|

      ginnin' my   life is gonna be     be -         auti - ful. Lifes
                                                            (2.) Shes
G|----------------|----0---2-------|----------------|----------------|
D|3-------0-------|3-----------3---|----------------|------------0---|
A|----0-------3---|----------------|----1-------1---|1-1---1-1-------|
E|----------------|----------------|----------------|----------------|
                                    __________________________________
                                   |1.
sunshine enough to spread       its just like the fellow said   tell me
telling me we'll be wed,       shes
G|----------------|----------------|0---------------|----------------|
D|1-------0-------|----------------|--------2-------|0---------------|
A|----------------|3-------1-------|----------------|--------3-------|
E|----------------|----------------|----------------|----------------|
______________________________________________________________________

quick, aint that a kick in the head?                       Whey!
G|----0---2-------|3---------------|----3---0-------|----1---3------- ||
D|3-----------3---|----------------|1-----------1---|3---------------.||
A|----------------|----1---3---4---|----------------|------------1---.||
E|----------------|----------------|----------------|---------------- ||
  ____________________________________________________________________
 |2.
picked out a king size bed      I couldn't be any better or id be sick
G|----------------|0---------------|----------------|--------3-------|
D|2---------------|------------2---|3---------------|----3-------1---|
A|--------3-------|--------3-------|----0---3---2---|1---------------|
E|----------------|----------------|----------------|----------------|
  ____________________________________________________________________

                           tell me  quick               oh ain't it a
G|0---2---3---4---|5---0-----------|----------------|----0---2-------|
D|----------------|--------2-------|3-------0-------|3-----------0---|
A|----------------|------------3---|----0-------3---|----------------|
E|----------------|----------------|----------------|----------------|
  ____________________________________________________________________

  kick                     tell me quick ain't that a kick in the head?
G|----6---1---4---|6---0---1-------|----------------|----------------|
D|----------------|------------2---|3-------0-------|------------0---|
A|4---------------|----------------|----0-------3---|1---2---3-------|
E|----------------|----------------|----------------|----------------|
  ____________________________________________________________________

                                                         yeah!
G|----------------|1---0---1-------|3---3-------3---|----------------||
D|1---0---1---0---|------------4---|----------------|----2---1-------||
A|----------------|----------------|--------3-------|1---------------||
E|----------------|----------------|----------------|----------------||


On the album version after the first verse the intro is played INSTEAD OF the first 4 bars of the
verse and then continues from the 5th bar of the verse, same goes for the 2nd instrumental of the second verse.

Enjoy, Jam
Suggest correction
Give kudos to tab author, rate the tab!
1 2 3 4 5
comments
print report bad tab
guest
You may want to rate the tab now too:
select rating
Wanna post a correction for this tab? Suggest correction