Oops, an error
Loading. Please wait.
We have Chord Pro version of Angels.
It's the closest thing you can get to the original song and it has interactive parts. Check out the tab »
×
10,344 views 84 this week
no commentswrite comment
1 2 3 4 5
x 8
add to favorites
launch autoscroll
font size
0
reset
guitar tuner
backing track
0:00
0:00
Autoscroll
slow
fast
+/-
esc
set tempo
stop
Author
Difficulty
intermediate
Artist: Robbie Williams
Song: Angels
Album: Life Thru a Lens
Bassist: Fil Eisler
Tuning: Standard


No bass till [1:00]

Chorus:

  +   +   +   +    +   +   +   +    +   +   +   +    +   +   +   +  
G|----------------|----------------|----------------|----------------|
D|----------------|----------------|----------------|----------------|
A|2-------2-2-----|4-------4-4-----|----------------|----------------|
E|-------2--------|-------4--------|5------05-5-----|0-------0-2-4-5-|

G|----------------|----------------|----------------|----------------|
D|----------------|----------------|----------------|----------------|
A|2-------2-2-----|4-------4-4-----|----------------|----------------|
E|-------2--------|-------4------4-|5------05-5-----|4-------4-4-----|

G|----------------|----------------|----------------|
D|----------------|----------------|----------------|
A|----------------|5-------4-------|----------------| 
E|2---------------|----------------|0~--------------|

Verse:

  +   +   +   +    +   +   +   +    +   +   +   +    +   +   +   +  
G|----------------|----------------|----------------|----------------|
D|----------------|2---------------|----------------|----------------|
A|--------------2-|-------2--------|----------------|2-------2-2-----|
E|0-------0-0-----|--------0---4---|5------05-------|-------2--------|

G|----------------|----------------|----------------|----------------|
D|----------------|2---------------|----------------|----------------|
A|--------------2-|-------2--------|----------------|2-------2-2---4-|
E|0-------0-------|--------0-0-4---|5------05-------|-------2--------|

  +   +   +   +    +   +   +   +    +   +   +   +    +   +   +   +  
G|----------------|----------------|----------------|----------------|
D|----------------|----------------|----------------|----------------|
A|5-------5-5-----|4-------4-4-----|-------2--------|5-------4-------|
E|-------5--------|-------4--------|0-------0-0-----|----------------|

  +     +     +     +  
G|------------------------|
D|------------------------|  
A|--2h4/7----7------------|  
D|0-----------0--2--4--5--|

Chorus:

  +   +   +   +    +   +   +   +    +   +   +   +    +   +   +   +  
G|----------------|----------------|----------------|----------------|
D|----------------|----------------|----------------|----------------|
A|2---2---2-2-----|4-------4-4-----|-----------/4-7-|----------------|
E|-------2--------|-------4-4----4-|5------05-5-----|0-------0-2-4-5-|

G|----------------|----------6-----|----------------|----------------|
D|----------------|----------------|----------------|----------------|
A|2---2---2-2-----|4---4---4---4---|----------------|----------------|
E|-------2--------|-------4-----477|5---5--05-5-----|4-------4-4-----|

G|----------------|----------------|----------------|
D|----------------|----------------|----------------|
A|----------------|5-------4-------|7-7-7-7-7-7-7-7-|
E|2---------------|----------------|----------------|

Guitar solo part:

  +   +   +   +    +   +   +   +    +   +   +   +    +   +   +   +  
G|----------------|----------------|----------------|----------------|
D|----------------|----------------|--------------24|----------------|
A|2---2---2-2-----|-----------/4-7-|-------2----24--|----------------|
E|-------2------2-|5---5--05-5-----|0---0---0-0-----|0---0---0-2-4-5-|

  +   +   +   +    +   +   +   +    +   +   +   +    +   +   +   +  
G|----------------|----------------|----------------|----------------|
D|----------------|----------------|----------242---|----------------|
A|2---2---2-2-----|-------4--------|--------24---42-|----------------|
E|-------2------0-|2---2---2-2---\-|0---0--0-------2|0---0---0-4-5-5-|

  +   +   +   +    +   +   +   +    +   +   +   +         +   +   +   +  
G|----------------|----------------|---------------------|----------------|
D|----------------|----------------|--2-------242/4\2/4\2|--2-----42--2---|
A|2---2---2-2-----|--------------44|--------24-----------|----------4---4-|
E|-------2------2-|5---5--05-5-----|0---0--0-------------|0---0--0--------|

  +   +   +   +    +   +   +   +    +   +   +   +
G|----------------|----------------|----------------|
D|----------------|--------2-4-----|----------------|
A|2-2-2---2-2-2-44|-------4-4------|----------------|
E|-------2-2------|2---2-------2-2-|4-4-4-4-4-4-4-4-|

Chorus:

  +   +   +   +    +   +   +   +    +   +   +   +    +   +   +   +  
G|----------------|----------------|----------------|----------------|
D|----------------|----------------|----------------|----------------|
A|2---2---2-2---2-|4---4---4-4-4---|-----------/4-7-|----------------|
E|-------2--------|-------4-4----4-|5---5--05-5-----|0---0---0-2-4-5-|

G|----------------|----------------|----------------|----------------|
D|----------------|----------------|----------------|----------------|
A|2---2---2-2---2-|4---4---4-4-4---|----------------|----------------|
E|-------2--------|-------4-4----4-|5------05-5-----|4-------4-4-----|

G|----------------|----------------|----------------|
D|----------------|----------------|----------------|
A|----------------|5-------4-------|----------------|
E|2---------------|----------------|0~--------------|

/  slide up
\  slide down
h  hammer-on
p  pull-off
~  let ring
Suggest correction
comments
print report bad tab
guest
You may want to rate the tab now too:
select rating
Wanna post a correction for this tab? Suggest correction