Oops, an error
Loading. Please wait.

Better Man Bass Tab

version 3
version 3

Whole song

Interactive

538 views 1 this week
no commentswrite comment
1 2 3 4 5
please rate
add to favorites
launch autoscroll
font size
0
reset
guitar tuner
Autoscroll
slow
fast
+/-
esc
set tempo
stop
Help us to improve Ultimate-Guitar.com Take our survey!
×
Author
Difficulty
novice
Artist: Robbie Williams
Song: Better Man
Album: Sing When You're Winning (2000)
Bassist: Fil Eisler
Tuning: Standard

Bass starts on 1:01

Verse:

  +   +   +   +    +   +   +   +    +   +   +   +    +   +   +   +  
G|----------------|----------------|----------------|----------------|
D|4---4---4-4-----|----------------|6---6---6-6-----|----------------|
A|-------4--------|6---6---6-6-----|-------6--------|4---4---4-4-----|
E|----------------|-------6--------|----------------|-------4--------| x2

Chorus:

  +   +   +   +    +   +   +   +    +   +   +   +    +   +   +   +  
G|----------------|----------------|----------------|----------------|
D|----------------|----------------|4---4---4-4-3---|----------------|
A|6---6---6-6-----|4---4---4-4-----|-------4--------|6---6---6-6-----|
E|-------6--------|-------4--------|----------------|-------6--------|

G|----------------|----------------|----------------|-/1311----------|
D|6---6---6-6-----|----------------|4---4---4-4-----|4-------1311----|
A|-------6--------|4---4---4-------|-------4----4-6-|------------1311|
E|----------------|----------------|----------------|----------------|

Middle-eight:

  +   +   +   +    +   +   +   +    +   +   +   +    +   +   +   +  
G|----------------|----------------|----------------|----1---2---4---|
D|----------------|0---0---0-0--2/4|2---2---2-2-----|4---------------|
A|0---0---0-2/4-0-|----------------|----------------|----------------|
E|----------------|----------------|----------------|----------------|

G|----------------|----------------|------------8---|6~--------------|
D|----------------|0---0---0-0-----|6---8---9-------|----------------|
A|0---0---0-0/4-0-|----------------|----------------|----------------|
E|----------------|----------------|----------------|----------------|

Verse:

  +   +   +   +    +   +   +   +    +   +   +   +    +   +   +   +  
G|----------------|----------------|----------------|----------------|
D|4---4---4-4-----|----------------|6---6---6-6-----|----------------|
A|-------4--------|6---6---6-6-----|-------6--------|4---4---4-4---4-|
E|----------------|-------6--------|----------------|-------4--------|

G|----------------|----------------|----------------|----------------|
D|4---4---4-4-----|----------------|6---6---6-6-----|----------------|
A|-------4--------|6---6---6-6-----|-------6--------|4---4---4-4-----|
E|----------------|-------6--------|----------------|-------4--------|

Chorus:

  +   +   +   +    +   +   +   +    +   +   +   +    +   +   +   +  
G|----------------|----------------|----------------|----------------|
D|----------------|----------------|4---4---4-4-3---|----------------|
A|6---6---6-6-----|4---4---4-4-----|-------4--------|6---6---6-6-----|
E|-------6--------|-------4--------|----------------|-------6--------|

G|----------------|----------------|
D|6---6---6-6-----|----------------|
A|-------6--------|4---4---4-------|
E|----------------|----------------|

Ending:

  +   +   +   +    +   +   +   +    +   +   +   +    +   +   +   +  
G|----------------|----------------|--686-----------|----------------|
D|4---4---4-4-----|4---4---4-4-----|4-----898-464---|----------------|
A|------------6-4-|------------6-4-|--------------64|----------------|
E|----------------|----------------|----------------|7~--------------|

G|----------------|----------------|
D|----------------|----------------|
A|----------------|----------------|
E|2~--------------|----------------|

/  slide up
\  slide down
h  hammer-on
p  pull-off
~  let ring     
Suggest correction
Give kudos to tab author, rate the tab!
1 2 3 4 5
comments
print report bad tab
guest
You may want to rate the tab now too:
select rating
Please do not post tabs as comments. Select "correction" instead!