Oops, an error
Loading. Please wait.

Clean Tab

635 views 1 this week
no commentswrite comment
1 2 3 4 5
3 more votes to show rating
add to favorites
launch autoscroll
font size
0
reset
how to read this tab
guitar tuner
Autoscroll
slow
fast
+/-
esc
set tempo
stop
Help us to improve Ultimate-Guitar.com Take our survey!
×
Author
Difficulty
novice
------------------------------------------------------------------------------
                             Robbie Williams - Clean
-------------------------------------------------------------------------------
Tabbed by:LukieWukie
Email:Lukie.Wukie@hotmail.com

Tuning:Standard tuning
Intro:-Rythm guitar

e|---------------------------------------------------------------------------|
B|-10-10-10-10-11-11-11-11----6-6-6-6--8-8-8---------------------------------|
G|-10-10-10-10-10-10-10-10-X3-6-6-6-6--8-8-8---------------------------------|
D|-10-10-10-10-10-10-10-10----6-6-6-6--8-8-8---------------------------------|
A|---------------------------------------------------------------------------|
E|---------------------------------------------------------------------------|
Intro:-lead guitar:
e|------------------------------------------------------------------------------|
B|-------6-6------------------------------------6--6----------8-8-8--8----------|
G|-5-7-8-----8-7-5--5-7-8-8--8--8-7-5---X-3--6-8----8-6--8-10----------10-8--10-|let ring
D|------------------------------------------------------------------------------|
A|------------------------------------------------------------------------------|
E|------------------------------------------------------------------------------|
Verse:
e|---------------------------------------------------------------------------|
B|---------------------------------------------------------------------------|
G|-10-10---------8-8-----10-10-------------6-6-6-6-8-8-8-8-------------------| X 2
D|-10-10-5-5-8-8-8-8-X2--10-10-5-5-8-8-8-8-6-6-6-6-8-8-8-8-------------------|
A|-8--8--7-7-8-8-6-6-----8--8--7-7-8-8-8-8-4-4-4-4-6-6-6-6-------------------|
E|-------5-5-6-6---------------5-5-6-6-6-6-----------------------------------|
Chorus:
e|---------------------------------------------------------------------------|
B|---------------------------------------------------------------------------|
G|-10-10---------8-8-----10-10-----6-6-6-6-8-8-8-8-8-8-8-8-------------------|
D|-10-10-5-5-8-8-8-8-X2--10-10-5-5-6-6-6-6-8-8-8-8-8-8-8-8-------------------|
A|-8--8--7-7-8-8-6-6-----8--8--7-7-4-4-4-4-6-6-6-6-6-6-6-6-------------------|
E|-------5-5-6-6---------------5-5-------------------------------------------|

Repeat first part of intro

Verse 2:same as first verse

Chorus

Instrumental:(I made this up)

e|------8--------4----6------------------------------------------------------|
B|---10----------------------------------------------------------------------|
G|-10----10----6----8----X3--8----10-----------------------------------------|
D|---------------------------8----10-----------------------------------------|
A|-8--------6-4----6---------6----8------------------------------------------|
E|---------------------------------------------------------------------------|
Guitar solo:rythm guitar plays verse pattern
Lead guitar: Bar the 5th fret for this solo
e|----------------------------------------------8----------------------------|
B|-----6-6-6-6-6-6-----6-6-6-6-6-6-6-----6-6-6-6-6--6-6-6-6-8-8-8-8-8--------|
G|-5-5-5-7-5-7>7-5-5-5-5-7-5-7-7-7-5-5-5-5-7-5-7-5--6-6-6-6-8-8-8-8-8--------|
D|-5-7-------------5-7---------------5-7------------6-6-6-6-8-8-8-8-8--------|
A|---------------------------------------------------------------------------|
E|---------------------------------------------------------------------------|
The rest of the song is just the Chorus played an octave higher
until...
Instrumental outro:(I play it like this)
e|---------------------------------------------------------------------------|
B|---------------------------------------------------------------------------|
G|-12-12-12-12-12-10-8-8-8-10-10-10------------------------------------------|
D|-12-12-12-12-12-10-8-8-8-10-10-10-X?---------------------------------------|
A|-10-10-10-10-10-8--6-6-6-8--8--8-------------------------------------------|
E|-10-10-10-10-10-8--6-6-6-8--8--8-------------------------------------------|

This isn't a perfect tab,but it works if you just want to play this acoustically or not 
perfect.
Enjoy!
Suggest correction
Give kudos to tab author, rate the tab!
1 2 3 4 5
comments
print report bad tab
guest
You may want to rate the tab now too:
select rating
Wanna post a correction for this tab? Suggest correction