Oops, an error
Loading. Please wait.

Come Undone Bass Tab

version 1
version 1

Whole song

Interactive

1,014 views 12 this week
no commentswrite comment
1 2 3 4 5
excellent!
x 1
add to favorites
launch autoscroll
font size
0
reset
guitar tuner
Tab Pro tools
  • play this tab
  • loop segment
  • change instrument
  • show fretboard
  • metronome
×
Best way to learn
"Come Undone"
Autoscroll
slow
fast
+/-
esc
set tempo
stop
Contributor
Difficulty
novice
Artist: Robbie Williams
Song: Come Undone
Album: Escapology (2002)
Bassist: Phil Spalding
Tuning: Standard

Intro and Verse:

G|----------------------------------------------------------------|
D|----------------------------------------------------------------|
A|----------------------------------------------------------------|
E|7~------------------------------0~------------------------------| x3

G|----------------------------------------------------------------|
D|----------------------------------------------------------------|
A|----------------------------------------------------------------|
E|7~------------------------------0~--------------------------0-1-|

Pre-chorus:

G|----------------------------------------------------------------|
D|----------------------------------------------------------------|
A|-------------------------------------------------------/7-7-7-7-|
E|2-2-2-2-2-2-2-2-0-0-0-0-0-0-0-0-2-2-2-2-2-2-2-2-0-0-0-0---------|

Chorus:

G|----------------------------------------------------------------|
D|----------------------------------------------------------------|
A|----------------------------------------------------------------|
E|7-7-7-7-7-7-7-7-0-0-0-0-0-0-0-0-7-7-7-7-7-7-7-7-0-0-0-0-0-0-0-0-|

G|----------------------------------------------------------------|
D|----------------------------------------------------------------|
A|--------------------------------4-4-4-4-4-4-4-4-7-7-7-7-7-7-7-7-|
E|7-7-7-7-7-7-7-7-0-0-0-0-0-0-0-0---------------------------------|

Bridge:

G|----------------------------------------------------------------|
D|----------------------------------------------------------------|
A|----------------------------------------------------------------|
E|7~--------------0~--------------7~--------------0~--------------|

Verse:

G|----------------------------------------------------------------|
D|----------------------------------------------------------------|
A|----------------------------------------------------------------|
E|7~--------------------------7\--0~------------------------------|

G|----------------------------------------------------------------|
D|----------------------------------------------------------------|
A|----------------------------------------------------------------|
E|7~--------------------------7\--0~--------------------------0-1-|

Pre-chorus:

G|----------------------------------------------------------------|
D|----------------------------------------------------------------|
A|-------------------------------------------------------/7-7-7-7-|
E|2-2-2-2-2-2-2-2-0-0-0-0-0-0-0-0-2-2-2-2-2-2-2-2-0-0-0-0---------|

Chorus:

G|----------------------------------------------------------------|
D|----------------------------------------------------------------|
A|----------------------------------------------------------------|
E|7-7-7-7-7-7-7-7-0-0-0-0-0-0-0-0-7-7-7-7-7-7-7-7-0-0-0-0-0-0-0-0-|

G|----------------------------------------------------------------|
D|----------------------------------------------------------------|
A|------------------------------2-4-4-4-4-4-4-4-4-7-7-7-7-7-7-7-7-|
E|7-7-7-7-7-7-7-7-0-0-0-0-0-0-4-----------------------------------|


G|-------------------------------------|
D|-------------------------------------|
A|-----------------------/14-14-14-14\-|
E|7-7-7-7-7-7-7-7-7-7-7-7--------------|


G|----------------------------------------------------------------|
D|----------------------------------------------------------------|
A|----------------------------------------------------------------|
E|5-5-5-5-5-5-5-5-4-4-4-4-4-4-4-4-7-7-7-7-7-7-7-7-7-7-7-7-7-7-7-7-|

G|--------------------------------------------------------------------|
D|--------------------------------------------------------------------|
A|----------------------------------------------g---------------------|
E|5-5-5-5-5-5-5-5-4-4-4-4-4-4-4-4-2-2-2-2-2-2-2-2/(4)-2-2-2-2-2-2-2-2-|

Guitar Solo:

G|----------------------------------------------------------------|
D|----------------------------------------------------------------|
A|----------------7-7-7-7-7-7-7-7-----------------7-7-7-7-7-7-7-7-|
E|7-7-7-7-7-7-7-7-----------------7-7-7-7-7-7-7-7-----------------|

G|----------------------------------------------------------------|
D|----------------------------------------------------------------|
A|----------------7-7-7-7-7-7-7-7-4-4-4-4-4-4-4-4-7-7-7-7-7---7---|
E|7-7-7-7-7-7-7-7-------------------------------------------0---0-|

Chorus:

G|----------------------------------------------------------------| 
D|----------------------------------------------------------------| 
A|----------------------------------------------------------------| 
E|7-7-7-7-7-7-7-7-0-0-0-0-0-0-0-0-7-7-7-7-7-7-7-7-0-0-0-0-0-0-0-0-| 
                                                                    
G|----------------------------------------------------------------| 
D|----------------------------------------------------------------| 
A|----------------7-7-7-7-7-7-7-7-4-4-4-4-4-4-4-4-7-7-7-7-7---7---| 
E|7-7-7-7-7-7-7-7-------------------------------------------0---0-| 

Ending:

G|----------------------------------------------------------------|
D|----------------------------------------------------------------|
A|----------------------------------------------------------------|
E|7-7-7-7-7-7-7-7-0-0-0-0-0-0-0-0-7-7-7-7-7-7-7-7-0-0-0-0-0-0-0-0-|

G|----------------------------------------------------------------|
D|----------------------------------------------------------------|
A|------------------------------------------------7-7-7-7-7-7-7-7-|
E|7-7-7-7-7-7-7-7-0-0-0-0-0-0-0-0-7-7-7-7-7-7-7-7-----------------|

G|----------------------------------------------------------------|
D|----------------------------------------------------------------|
A|----------------------------------------------------------------|
E|7-7-7-7-7-7-7-7-0-0-0-0-0-0-0-0-7-7-7-7-7-7-7-7-0-0-0-0-0-0-0-0-|

G|----------------------------------------------------------------|
D|----------------------------------------------------------------|
A|----------------7-7-7-7-7-7-7-7-----------------7-7-7-7-7---7---|
E|7-7-7-7-7-7-7-7-----------------7-7-7-7-7-7-7-7-----------0---0-|

G|----------------------------------------------------------------|
D|----------------------------------------------------------------|
A|----------------------------------------------------------------|
E|7-7-7-7-7-7-7-7-0-0-0-0-0-0-0-0-7~------------------------------|

/  slide up
\  slide down
h  hammer-on
p  pull-off
~  let ring
comments
We did not receive enough feedback on this tab! Please rate:
print report bad tab
1 2 3 4 5
I want to post or [tab]
guest
You may want to rate the tab now too:
select rating
Please do not post tabs as comments. Select "correction" instead!