Oops, an error
Loading. Please wait.

Ego A Go Go Bass Tab

318 views 1 this week
no commentswrite comment
1 2 3 4 5
3 more votes to show rating
add to favorites
launch autoscroll
font size
0
reset
guitar tuner
Autoscroll
slow
fast
+/-
esc
set tempo
stop
Help us to improve Ultimate-Guitar.com Take our survey!
×
Author
Difficulty
intermediate
Artist: Robbie Williams
Song: Ego A Go Go
Album: Life Thru a Lens (1997)
Bassist: Fil Eisler
Tuning: Standard

Intro:
      
G|------------------------------------------------------------|
D|--13-1113-11\------------------13-1113-11\------------------|
A|--------------9-10-11--911-9\--------------9-10-11--911-9\--|
E|------------------------------------------------------------|

G|----------------------|    |-------------------------|
D|----------------------|    |-------------------------|
A|6-6-46-4\-------------|    |6-6-46-4\----------------|
E|----------2-3-4-24-2-\| x3 |----------2-3-4-24-2-2-2-|

Verse:

G|----------------------|    |-------------------------|
D|----------------------|    |-------------------------|
A|6-6-46-4\-------------|    |6-6-46-4\----------------|
E|----------2-3-4-24-2-\| x3 |----------2-3-4-24-2-2-2-|

G|----------------------|    |-------------------------|
D|----------------------|    |-------------------------|
A|6-6-46-4\-------------|    |6-6-46-4\------------4-5-|
E|----------2-3-4-24-2-\| x3 |----------2-3-4-24-2-----|

Pre-chorus:

G|----------------------|-------------------------|
D|----------------------|-------------------------|
A|6-6-46-4\--------4----|6-6-46-4\--------4-------|
E|----------4-5-6-6--6-\|----------4-5-6-6--6-4---|

G|----------------------|-------------------------|
D|----------------------|-------------------------|
A|6-6-46-4\--------4----|6-6-46-4\--------4-------|
E|----------4-5-6-6--6-\|----------4-5-6-6--6-4-6-|

Chorus:

G|------------|-------------|------------|-------------|
D|------------|-------------|------------|-------------|
A|2-2-22--2---|4-4-4----4---|------------|-------------|
E|------2---2-|-----2-4---4-|2-2-222-4-5-|6-6-66-4-6-6-|
                             
G|------------|-------------|
D|------------|-------------|
A|2-2-22--2---|4-4-4----4---|
E|------2---2-|-----2-4---4-|
  
Bridge:

G|-----------------------------------------------------------------|
D|--13-1113-11\------------------13-1113-11\---------8h11p8h11p8---|
A|--------------9-10-11--911-9\--------------9-10-11------------11\|
E|-----------------------------------------------------------------|
                                    
Verse:      

G|----------------------|    |-------------------------|
D|----------------------|    |-------------------------|
A|6-6-46-4\-------------|    |6-6-46-4\------------4-5-|
E|----------2-3-4-24-2-\| x3 |----------2-3-4-24-2-----|                                      

G|----------------------|    |-------------------------|
D|----------------------|    |-------------------------|
A|6-6-46-4\-------------|    |6-6-46-4\----------------|
E|----------2-3-4-24-2-\| x3 |----------2-3-4-24-2--2--|

Pre-chorus:

G|----------------------|-------------------------|
D|----------------------|-------------------------|
A|6-6-46-4\--------4----|6-6-46-4\--------4-------|
E|----------4-5-6-6--6-\|----------4-5-6-6--6-4---|

G|----------------------|-------------------------|
D|----------------------|-------------------------|
A|6-6-46-4\--------4----|6-6-46-4\--------4-------|
E|----------4-5-6-6--6-\|----------4-5-6-6--6-4-6-|

Chorus:

G|------------|-------------|------------|------------|
D|------------|-------------|------------|------------|
A|2-2-22--2---|4-4-4----4---|------------|------------|
E|------2---2-|-----2-4---4-|2-2-222-2-2-|6-6-664-6-6-|

G|------------|-------------|---------------------|
D|------------|-------------|---------------------|
A|2-2-22--2---|4-4-4--4-4-4-|6-6-46-4\-------696~\|
E|------2---2-|-----4-------|----------4-5-6------|

G|------------|-------------|------------|------------|
D|------------|-------------|------------|------------|
A|2-2-222-1---|-------------|------------|------------|
E|----------2-|1-1-11-1-4-1-|2-2-222-2-2-|6-6-664-6-6-|

G|------------|-------------|   |----------------------|
D|------------|-------------|   |----------------------|
A|2-2-22--2---|4-4-4----4---|   |6-6-46-4\-------------|
E|------2---2-|-----2-4---4-| + |----------2-3-4-24-2-\| x4

Interlude:

G|----------------|------------------------------------|
D|----------------|------------------------------------|
A|6~--------------|6~---------/18-18-18-18-18-18-18\---|
E|----6~--7~--9~--|----6~--7---------------------------|

Outro:

G|-------------|-------------|-------------|-------------|
D|-------------|-------------|-------------|-------------|
A|6-6-64-6-4---|---------4---|-------------|4-4-44-4---4-|
E|-----------5-|6-6-64-6---6-|7-7-77-7-7-7-|---------4---| x2

G|-------------|-------------|-------------|-------------|
D|-------------|-------------|-------------|-------------|
A|6-66-6-6-6-6-|-------------|-------------|4-44-4-4-4-4-|
E|-------------|6-66-6-6-6-6-|7-77-7-7-7-7-|-------------|

G|-------------|-------------|-------------|----------------------|
D|-------------|-------------|-------------|----6-----------------|
A|6-66-6-6-6-6-|-------------|-------------|--8-----3-4-6~-----6\-|
E|-------------|6-66-6-6-6-6-|7-77-7-7-7-7-|9-----4---------------|

() ghost note
/  slide up
\  slide down
h  hammer-on
p  pull-off
~  let ring
Suggest correction
Give kudos to tab author, rate the tab!
1 2 3 4 5
comments
print report bad tab
guest
You may want to rate the tab now too:
select rating
Wanna post a correction for this tab? Suggest correction