Oops, an error
Loading. Please wait.

Feel Bass Tab

version 2
version 2

Whole song

Interactive

1,641 views 3 this week
no commentswrite comment
1 2 3 4 5
excellent!
x 1
add to favorites
launch autoscroll
font size
0
reset
guitar tuner
Tab Pro tools
  • play this tab
  • loop segment
  • change instrument
  • show fretboard
  • metronome
×
Best way to learn
"Feel"
Autoscroll
slow
fast
+/-
esc
set tempo
stop
Contributor
Difficulty
novice
Artist: Robbie Williams
Song: Feel
Album: Escapology (2002)
Bassist: Phil Spalding
Tuning: Standard

Not sure about bass here (except slide) but You can play this if You want.
Remove dead notes (x) if You like it better.

Chorus: [0:49]

  +   +   +   +    +   +   +   +    +   +   +   +    +   +   +   +  
G|----------------|----------------|----------------|----------------|
D|----------------|----------------|----------------|----------------|
A|1---------------|----------------|3---------------|----------------|
E|----------------|1---------------|----------------|----------------|

G|----------------|----------------|----------------|----------------|
D|----------------|3---------------|----------------|----------------|
A|1---------------|----------------|3---------------|-------------10\|
E|----------------|----------------|----------------|----------------|

Verse: 

  +   +   +   +    +   +   +   +    +   +   +   +    +   +   +   +  
G|----------------|----------------|----------------|----------------|
D|----------------|----------------|----------------|----------------|
A|5------x5-5-----|3------x3-3-----|4------x4-4-----|----------4-----|
E|----------------|----------------|----------------|5------x5---5---|

G|----------------|----------------|----------------|----------------|
D|----------------|----------------|----------------|----------------|
A|----------------|----------------|----------------|----------7---7-|
E|3------x3-3-----|1------x1-1-----|0------x0-0-----|5-----------5--8|

  +   +   +   +    +   +   +   +    +   +   +   +    +   +   +   +  
G|----------------|----------------|----------------|----------------|
D|----------------|----------------|----------------|----------------|
A|5------x5-5-----|3------x3-3-----|4------x4-4-----|----------4-----|
E|----------------|----------------|----------------|5------x5---5-4-|

G|----------------|----------------|----------------|----------------|
D|----------------|----------------|----------------|7---7---7-7-7-7-|
A|----------------|----------------|--------------57|----------------|
E|3------x3-3-----|1------x1-1-----|5------x5-5-----|----------------|


Chorus: (play without dead notes if You want)

  +   +   +   +    +   +   +   +    +   +   +   +    +   +   +   +  
G|----------------|----------------|----------------|----------------|
D|----------------|----------------|----------------|----------------|
A|1---1--x1-1---3-|----------------|3---3--x3-3-----|3---3--x3-3---3-|
E|----------------|1---1--x1-1---35|--------------3-|----------------| all x2

G|----------------|----------------|----------------|----------------|
D|----------------|----------------|--------------5-|----------------|
A|1---1--x1-1---3-|----------------|3---3--x3-3-----|3---3--x3-3-4-4-|
E|----------------|1---1--x1-1---35|----------------|----------------|

  +   +   +   +    +   +   +   +    +   +   +   +    +   +   +   +  
G|----------------|----------------|----------------|----------------|
D|----------------|----------------|----------------|----------------|
A|5\--------------|----------------|----------------|----------------|
E|----------------|----------------|----------------|----------1/13\8|

First Interlude:

  +   +   +   +    +   +   +   +    +   +   +   +    +   +   +   +  
G|----------------|----------------|----------------|----------------|
D|----------------|----------------|----------------|----------------|
A|5---5---5-------|----------------|5---5---5-------|----------------|
E|-----------5--5-|1---1---1--3--3-|-----------5--5-|1---1---1--3--3-|

G|----------------|----------------|----------------|----------------|
D|----------------|----------------|----------------|-----------5--5\|
A|5---5---5-------|----------------|5---5---5--7--7-|8---8---8-------|
E|-----------5--5-|1---1---1--3--3-|----------------|----------------|

Chorus:

  +   +   +   +    +   +   +   +    +   +   +   +    +   +   +   +  
G|----------------|----------------|----------------|----------------|
D|----------------|----------------|--------------5-|----------------|
A|1---1--x1-1---3-|----------------|3---3--x3-3-----|3---3--x3-3---3x|
E|----------------|1---1--x1-1---35|----------------|----------------|

G|----------------|----------------|----------------|----------------|
D|----------------|----------------|----------------|----------------|
A|1---1--x1-1---3-|----------------|3---3--x3-3-----|3---3--x3-3---3-|
E|----------------|1---1--x1-1---35|--------------3-|----------------|

  +   +   +   +    +   +   +   +    +   +   +   +    +   +   +   +  
G|----------------|----------------|----------------|----------------|
D|----------------|----------------|--------------5-|----------------|
A|1---1--x1-1---3-|----------------|3---3--x3-3-----|3---3--x3-3---3-|
E|----------------|1---1--x1-1---35|---------------3|----------------|

G|----------------|----------------|----------------|----------------|
D|----------------|----------------|----------------|----------------|
A|1---1--x1-1---3-|----------------|3---3--x3-3---3-|3---3--x3-3-4-4-|
E|----------------|1---1--x1-1---35|----------------|----------------|

  +   +   +   +    +   +   +   +    +   +   +   +    +   +   +   +  
G|----------------|----------------|----------------|----------------|
D|----------------|----------------|----------------|----------------|
A|5\--------------|----------------|----------------|----------------|
E|----------------|----------------|----------------|----------1/13\8|

Second Interlude:

  +   +   +   +    +   +   +   +    +   +   +   +    +   +   +   +  
G|----------------|----------------|----------------|----------------| |
D|----------------|----------------|----------------|----------------| |
A|5---5---5-------|----------------|5---5---5-------|----------------| |
E|-----------5--5-|1---1---1--3--3-|-----------5--5-|1---1---1--3--3-| |
                                                                       | x2
G|----------------|----------------|----------------|----------------| |
D|----------------|----------------|----------------|-----------5--5\| |
A|5---5---5-------|----------------|5---5---5--7--7-|8---8---8-------| |
E|-----------5--5-|1---1---1--3--3-|----------------|----------------| |

G|----------------|----------------|----------------|----------------|
D|----------------|----------------|----------------|----------------|
A|5~--------------|----------------|----------------|----------------|
E|----------------|----------------|----------------|----------------|

x  dead note
/  slide up
\  slide down
h  hammer-on
p  pull-off
~  let ring
comments
We did not receive enough feedback on this tab! Please rate:
print report bad tab
1 2 3 4 5
I want to post or [tab]
guest
You may want to rate the tab now too:
select rating
Please do not post tabs as comments. Select "correction" instead!