Oops, an error
Loading. Please wait.

Handsome Man Bass Tab

256 views 1 this week
no commentswrite comment
1 2 3 4 5
please rate
add to favorites
launch autoscroll
font size
0
reset
guitar tuner
Autoscroll
slow
fast
+/-
esc
set tempo
stop
Help us to improve Ultimate-Guitar.com Take our survey!
×
Contributor
Difficulty
4useless 2,774
intermediate
Artist: Robbie Williams
Song: Handsome Man
Album: Escapology (2002)
Bassist: Phil Spalding
Tuning: Standard

I'm not sure about this tab but it goes something like this:

Intro and Verse:
  +   +   +   +    +   +   +   +         +   +   +   +    +   +   +   +
G|----------------|----------------|   |----------------|----------------|
D|----------------|----------------|   |----------------|----------------|
A|5-------------5-|5h7-------------|   |5-------------5-|5h7-------------|
E|------------57--|--------3---5---| + |------------57-7|--------3---5---| x5

Pre-chorus:

  +   +   +   +    +   +   +   +    +   +   +   +    +   +   +   +    +   +   +   +
G|----------------|----------------|--------4-------|----------------|----------------|
D|----------------|----------------|-------4-4------|----------------|-------/7-7-7-7-|
A|2------x2-2---xx|5------x505---x0|2---------2---x4|5-5-5-x23-3-3-2-|0-0-0-0---------|
E|----------------|----------------|----------------|----------------|----------------|

Chorus:

  +   +   +   +    +   +   +   +    +   +   +   +    +   +   +   +     
G|----------------|----------------|----------------|----------------|
D|----------------|----------------|----------------|----------------|
A|5-5-5-----------|--------------57|5-5-5-----------|--------------57|
E|------023-3-2-2-|0-0-0-0-5-5-57--|------023-3-2-2-|0-0-0-0-5-5-57--|

G|----------------|----------------|----------------|----------------|
D|----------------|----------------|--------------5-|7-7-7-7-7-------|
A|5-5-5-----------|----------------|3-3-3-3-3-3/7---|----------------|
E|------023-3-2-2-|0-0-0-0-5-5-5555|----------------|----------------|

Bridge and Verse:

  +   +   +   +    +   +   +   +         +   +   +   +    +   +   +   +
G|----------------|----------------|   |----------------|----------------|
D|----------------|----------------|   |----------------|----------------|
A|5-------------5-|5h7-------------|   |5-------------5-|5h7-------------|
E|------------57--|--------3---5---| + |------------57-7|--------3---5---| x5

Pre-chorus:

  +   +   +   +    +   +   +   +    +   +   +   +    +   +   +   +    +   +   +   +
G|----------------|----------------|--------4-------|----------------|-----------/14\-|
D|----------------|----------7-----|-------4-4------|--------------5-|7-7-7-7-7-7-----|
A|2-------2-2---24|5----xx/9--90-1-|2---------2---x4|5-5-5-x23-3/7---|----------------|
E|-------2--------|----------------|----------------|----------------|----------------|

Chorus:

  +   +   +   +    +   +   +   +    +   +   +   +    +   +   +   +     
G|----------------|----------------|----------------|----------------|
D|----------------|----------------|----------------|------------7---|
A|5-5-5-----------|--------------57|5-5-5-----------|----------7--7-7|
E|------023-3-2-2-|0-0-0-0-5-5-57--|------023-3-2-2-|0-0-0-0-5-----5-|

G|----------------|----------------|----------------|----------------|
D|----------------|----------------|----------------|7-7-7-7-7-------|
A|5-5-5-----------|--------------2-|3-3-3-3-3-3-3/7-|----------7---7-|
E|------023-3-2-2-|0-0-0-0-5-5-5---|----------------|------------5---|

Middle-eight:

  +   +   +   +    +   +   +   +    +   +   +   +    +   +   +   + 
G|----------------|----------------|----------------|----------------|
D|----------------|----------------|----------------|----------------|
A|----------------|----------------|5-5-5-5-5-5-5-5-|5-5-5-5-5-------|
E|6-6-6-6-6-6-6-6-|8-8-8-8-8-8-8-8-|----------------|----------8-6-5-|

  +   +   +   +    +   +   +   +    +   +   +   +    +   +   +   + 
G|----------------|----------------|----------------|----------------|
D|----------------|----------------|----------------|----------------|
A|----------------|------3-3-3-3-3-|2-2-2-2-2-2-2-2-|1-1-1-1-1-1-1-3-|
E|6-6-5-5-3-3-1-1-|0-1-3-----------|----------------|----------------|

Bridge:

  +   +   +   +    +   +   +   +    +   +   +   +    +   +   +   +     
G|----------------|----------------|----------------|----------------|
D|----------------|----------------|----------------|------------754-|
A|5---5-----------|--------------57|5-5-5-----------|----------7----7|
E|--------3-3-2-2-|0---0-0-5-5-57--|-------x3-3-2-2-|0-0-0-0-5-------|

G|----------------|----------------|----------------|------------14\-|
D|----------------|----------------|--------------5-|7-7-7-7-7-7/----|
A|5-5-5-----------|----------------|3-3-3-3-3-3/7---|----------------|
E|-------x3-3-2-2-|0-0-0-0-5-5-5-5-|----------------|----------------|

Chorus:
   
 
  +   +   +   +    +   +   +   +    +   +   +   +    +   +   +   + 
G|----------------|----------------|----------------|----------------|
D|----------------|----------------|----------------|----------------|
A|6-6-6-----------|--------------68|6-6-6-----------|--------------68|
E|-------x4-4-3-3-|1-1-1-1-6-6-68--|-------x4-4-3-3-|1-1-1-1-6-6-68--|

G|----------------|----------------|----------------|----------------|
D|----------------|----------------|----------------|------------8\--|
A|6-6-6-----------|----------------|4-4-4-4-4-4-4---|----------------|
E|-------x4-4-3-3-|1-1-1-1-6-6-6-6-|--------------45|6-6-6-6-6-6-----|

G|----------------|----------------|----------------|----------------|
D|----------------|----------------|----------------|--------8-8-865-|
A|6-6-6-----------|--------------68|6-6-6-----------|8-8-8-8--------8|
E|-------x4-4-3-3-|1-1-1-1-6-6-68--|-------x4-4-6-6-|----------------|

G|----------------|----------------|----------------|----------------|
D|----------------|----------------|----------------|----------------|
A|6-6-6-----------|----------------|4-4-4-4-4-4-4-4-|4-4-4-4-4-4-4-4-|
E|-------x4-4-3-3-|1-1-1-1-6-6-6-6-|----------------|----------------|

G|----------------|----------------|----------------|----------------|
D|----------------|----------------|----------------|----------------|
A|4-4-4-4-4-4-4-4-|4-4-4-4-4-4-4-4-|4-4-4-4-4-4-4-4-|4-4-4-4-4-4-4-4-|
E|----------------|----------------|----------------|----------------|

G|----------------|----------------|----------------|----------------|
D|----------------|----------------|----------------|----------------|
A|4-4-4-4-4-4-4-4-|4-4-4-4-4-4-4-4-|6---------------|----------------|
E|----------------|----------------|----------------|----------------|

x  dead note
/  slide up
\  slide down
h  hammer-on
p  pull-off
~  let ring
Suggest correction new What's this?
You can suggest a correction to this tab. Community and Mods will review your correction and vote to approve or reject it.
comments
We did not receive enough feedback on this tab! Please rate:
print report bad tab
1 2 3 4 5
guest
You may want to rate the tab now too:
select rating
Please do not post tabs as comments. Select "correction" instead!