Oops, an error
Loading. Please wait.

Let Me Entertain You bass

version 1
version 1

Whole song

Interactive

1,606 views 57 this week
no commentswrite comment
1 2 3 4 5
2 more votes to show rating
add to favorites
×
Save as Personal and add changes to this tab that will be seen only by you. Learn more ›
×
You can save this tab as Personal to edit and correct it or add notes. All changes will be seen only by you. Learn more »
launch autoscroll
font size
0
reset
guitar tuner
backing track
0:00
0:00
edit
Autoscroll
slow
fast
+/-
esc
set tempo
stop
Author
Difficulty
Title: Let Me Entertain You
Artist: Robbie Williams
Album: Life Thru A Lens
Tuning: Standard (E A D G)
Tab Author: Pearce Hamblin (The Bass Diaries)

  [Intro]
   1  e  +  a  2  e  +  a  3  e  +  a  4  e  +  a    1  e  +  a  2  e  +  a  3  e  +  a  4  e  +  a
G|-------------------------------------------------|-------------------------------------------------|
D|-------------------------------------------------|-------------------------------------------------|
A|-------------------------------------------------|-------------------------------------------------|
E|-------------------------------------------------|-------------------------------------------------|


   1  e  +  a  2  e  +  a  3  e  +  a  4  e  +  a    1  e  +  a  2  e  +  a  3  e  +  a  4  e  +  a
G|-------------------------------------------------|-------------------------------------------------|
D|-------------------------------------------------|-------------------------------------------------|
A|-------------------------------------------------|-------------------------------------------------|
E|-------------------------------------------------|-------------------------------------------------|


   1  e  +  a  2  e  +  a  3  e  +  a  4  e  +  a    1  e  +  a  2  e  +  a  3  e  +  a  4  e  +  a
G|-------------------------------------------------|-------------------------------------------------|
D|-------------------------------------------------|-------------------------------------------------|
A|-------------------------------------------------|-------------------------------------------------|
E|-------------------------------------------------|-------------------------------------------------|


   1  e  +  a  2  e  +  a  3  e  +  a  4  e  +  a    1  e  +  a  2  e  +  a  3  e  +  a  4  e  +  a
G|-------------------------------------------------|-------------------------------------------------|
D|-------------------------------------------------|-------------------------------------------------|
A|-------------------------------------------------|-------------------------------------------------|
E|-------------------------------------------------|-------------------------------------------------|


   1  e  +  a  2  e  +  a  3  e  +  a  4  e  +  a    1  e  +  a  2  e  +  a  3  e  +  a  4  e  +  a
G|-------------------------------------------------|-------------------------------------------------|
D|-------------------------------------------------|-------------------------------------------------|
A|-------------------------------------------------|-------------------------------------------------|
E|-------------------------------------------------|-------------------------------------------------|


   1  e  +  a  2  e  +  a  3  e  +  a  4  e  +  a    1  e  +  a  2  e  +  a  3  e  +  a  4  e  +  a
G|-------------------------------------------------|-------------------------------------------------|
D|-------------------------------------------------|-------------------------------------------------|
A|-------------------------------------------------|-------------------------------------------------|
E|-------------------------------------------------|-------------------------------------------------|

  [Verse 1]
   1  e  +  a  2  e  +  a  3  e  +  a  4  e  +  a    1  e  +  a  2  e  +  a  3  e  +  a  4  e  +  a
G|-------------------------------------------------|-------------------------------------------------|
D|-------------------------------------------------|-------------------------------------------------|
A|-------------------------------------------------|-------------------------------------------------|
E|-------------------------------------------------|-------------------------------------------------|


   1  e  +  a  2  e  +  a  3  e  +  a  4  e  +  a    1  e  +  a  2  e  +  a  3  e  +  a  4  e  +  a
G|-------------------------------------------------|-------------------------------------------------|
D|-------------------------------------------------|-------------------------------------------------|
A|-------------------------------------------------|-------------------------------------------------|
E|-------------------------------------------------|-------------------------------------------------|


   1  e  +  a  2  e  +  a  3  e  +  a  4  e  +  a    1  e  +  a  2  e  +  a  3  e  +  a  4  e  +  a
G|-------------------------------------------------|-------------------------------------------------|
D|-------------------------------------------------|-------------------------------------------------|
A|-------------------------------------------------|-------------------------------------------------|
E|-------------------------------------------------|-------------------------------------------------|


   1  e  +  a  2  e  +  a  3  e  +  a  4  e  +  a    1  e  +  a  2  e  +  a  3  e  +  a  4  e  +  a
G|-------------------------------------------------|-13----------------------------------------------|
D|-------------------------------------------------|-------15-13-15----15-13-15-13-------------------|
A|-------------------------------------------------|-------------------------------15----13----11----|
E|-------------------------------------------------|-------------------------------------------------|

  [Chorus 1]
   1  e  +  a  2  e  +  a  3  e  +  a  4  e  +  a    1  e  +  a  2  e  +  a  3  e  +  a  4  e  +  a
G|-------------------------------------------------|-------------------------------------------------|
D|-------------------------------------------------|-------------6-----------------------------------|
A|-6--8-----6--8-----8--6-----6--5-----------------|----------------------3--------4-----5-----6-----|
E|-------------------------------------8-----6-----|-4-----4-----------4--------4--------------------|


   1  e  +  a  2  e  +  a  3  e  +  a  4  e  +  a    1  e  +  a  2  e  +  a  3  e  +  a  4  e  +  a
G|-------------------------------------------------|-------------------------------------------------|
D|-------------8-----------------------------------|----------------------6-----6--------------------|
A|----------------------------5--------6-----7-----|-8-----8-----8-----8-----------8-----6-----------|
E|-6-----6--------------6-----------6--------------|-------------------------------------------8-----|


   1  e  +  a  2  e  +  a  3  e  +  a  4  e  +  a    1  e  +  a  2  e  +  a  3  e  +  a  4  e  +  a
G|-------------------------------------------------|-------------------------------------------------|
D|-------------------------------------------------|-------------6-----------------------------------|
A|-6--8-----6--8-----8--6-----6--5-----------------|----------------------------3--------4-----6-----|
E|-------------------------------------8-----6-----|-4-----4--------------4-----------4--------------|


   1  e  +  a  2  e  +  a  3  e  +  a  4  e  +  a    1  e  +  a  2  e  +  a  3  e  +  a  4  e  +  a
G|-------------------------------------------------|-------------------------------------------------|
D|-------------8-----------------------------------|-------------------------------------------------|
A|----------------------5--------6-----------7-----|-6--8--8-----8-----6--8-----6--8-----8-----0-----|
E|-6-----6--------6-----------6--------------------|-------------------------------------------------|

  [Verse 2]
   1  e  +  a  2  e  +  a  3  e  +  a  4  e  +  a    1  e  +  a  2  e  +  a  3  e  +  a  4  e  +  a
G|-------------------------------------------------|-------------------------------------------------|
D|-------------------------------------------------|-------------------------------------------------|
A|-6--8-----6--8-----6--8-----8-----8--6-----8-----|-6--8-----6--8-----6--8-----8-----6--8-----8--8--|
E|-------------------------------------------------|-------------------------------------------------|


   1  e  +  a  2  e  +  a  3  e  +  a  4  e  +  a    1  e  +  a  2  e  +  a  3  e  +  a  4  e  +  a
G|-------------------------------------------------|-------------------------------------------------|
D|-------------------------------------------------|-------------------------------------------------|
A|-6--8-----6--8-----6--8-----8-----6--8-----8--8--|-6--8-----6--8-----6--8-----8-----6--8-----8--8--|
E|-------------------------------------------------|-------------------------------------------------|


   1  e  +  a  2  e  +  a  3  e  +  a  4  e  +  a    1  e  +  a  2  e  +  a  3  e  +  a  4  e  +  a
G|-------------------------------------------------|-------------------------------------------------|
D|-------------------------------------------------|-------------------------------------------------|
A|-6--8-----6--8-----6--8-----8-----6--8-----8--8--|-6--8-----6--8-----6--8-----8-----6--8-----8--8--|
E|-------------------------------------------------|-------------------------------------------------|


   1  e  +  a  2  e  +  a  3  e  +  a  4  e  +  a    1  e  +  a  2  e  +  a  3  e  +  a  4  e  +  a
G|-------------------------------------------------|-------------------------------------------------|
D|-------------------------------------------------|-------------------------------------------------|
A|-6--8-----6--8-----6--8-----8-----6--8-----8--8--|-6--8-----6--8-----6--8--8--8--6-----------6-----|
E|-------------------------------------------------|-------------------------------------8-----------|

  [Chorus 2]
   1  e  +  a  2  e  +  a  3  e  +  a  4  e  +  a    1  e  +  a  2  e  +  a  3  e  +  a  4  e  +  a
G|-------------------------------------------------|-------------------------------------------------|
D|-------------------------------------------------|-------------6-----------------------------------|
A|-8-----8-----8-----6--8--8--8--7-----6-----------|----------------------3--------4-----5-----5--6--|
E|-------------------------------------------8-----|-4-----4-----------4--------4--------------------|


   1  e  +  a  2  e  +  a  3  e  +  a  4  e  +  a    1  e  +  a  2  e  +  a  3  e  +  a  4  e  +  a
G|-------------------------------------------------|-------------------------------------------------|
D|-------------8--------------8--6-----5-----------|-------------------------------------------------|
A|-------------------------------------------6-----|-8-----8-----6--5--------------------------------|
E|-6-----6--------------6--6-----------------------|----------------------8-----8--6-----5-----4-----|


   1  e  +  a  2  e  +  a  3  e  +  a  4  e  +  a    1  e  +  a  2  e  +  a  3  e  +  a  4  e  +  a
G|-------------------------------------------------|-------------------------------------------------|
D|-------------3-----3-----------------------------|-------------6--------6-----6--------------------|
A|----------------------0--0--0--1-----2-----3-----|-------------------------------3-----4-----6-----|
E|-1-----1-----------------------------------------|-4-----4-----------4-----------------------------|


   1  e  +  a  2  e  +  a  3  e  +  a  4  e  +  a    1  e  +  a  2  e  +  a  3  e  +  a  4  e  +  a
G|-------------------------------------------------|-------------------------------------------------|
D|-------------8-----------------------------------|-------------------------------------------------|
A|----------------------5--5-----5-----------6--8--|-8-----8-----8-----6--8-----6--------6-----7-----|
E|-6-----6-----------6--------6--------------------|-------------------------------8-----------------|

  [Verse 3]
   1  e  +  a  2  e  +  a  3  e  +  a  4  e  +  a    1  e  +  a  2  e  +  a  3  e  +  a  4  e  +  a
G|-------------------------------------------------|-------------------------------------------------|
D|-------------------------------------7--8--10----|-------------------------------------7--8--10----|
A|-8--8--------8-----6--8-----6--8-----------------|-6--8-----6--8-----6--8--8--6--8-----------------|
E|-------------------------------------------------|-------------------------------------------------|


   1  e  +  a  2  e  +  a  3  e  +  a  4  e  +  a    1  e  +  a  2  e  +  a  3  e  +  a  4  e  +  a
G|-------------------------------------------------|-------------------------------------------------|
D|-------------------------------------7--8--9-----|-------------------------------------7-----------|
A|-6--8-----6--8-----6--8-----6--8-----------------|-6--8--6--8--6--8--6--8-----6--8-----------------|
E|-------------------------------------------------|-------------------------------------------------|


   1  e  +  a  2  e  +  a  3  e  +  a  4  e  +  a    1  e  +  a  2  e  +  a  3  e  +  a  4  e  +  a
G|-------------------------------------------------|-------------------------------------------------|
D|-------------------------------------6-----------|-------------------------------------7--8--9-----|
A|-6--8-----6--8-----6--8-----6--8-----------8--0--|-6--8-----6--8-----6--8-----6--8-----------------|
E|-------------------------------------------------|-------------------------------------------------|


   1  e  +  a  2  e  +  a  3  e  +  a  4  e  +  a    1  e  +  a  2  e  +  a  3  e  +  a  4  e  +  a
G|-------------------------------------------------|-------------------------------------------------|
D|-------------------------------------6-----------|-------------------------------------------------|
A|-6--8-----6--8-----6--8-----6--8-----------8-----|-6--8-----6--8-----6--8-----8--6-----------------|
E|-------------------------------------------------|-------------------------------------8-----6-----|

  [Bridge 1]
   1  e  +  a  2  e  +  a  3  e  +  a  4  e  +  a    1  e  +  a  2  e  +  a  3  e  +  a  4  e  +  a
G|-------------------------------------------------|-------------------------------------------------|
D|-------------------------------------------------|-------------------------------------------------|
A|-8-----8-----8-----8--8-----8--8-----8-----8--8--|-6-----6-----6-----6--6-----6--6-----6-----6--6--|
E|-------------------------------------------------|-------------------------------------------------|


   1  e  +  a  2  e  +  a  3  e  +  a  4  e  +  a    1  e  +  a  2  e  +  a  3  e  +  a  4  e  +  a
G|-------------------------------------------------|-------------------------------------------------|
D|-------------------------------------------------|-------------------------------------------------|
A|-5-----5-----5-----5--5-----5--5-----5-----5--5--|-8-----8-----8-----8--8-----8--8-----8-----------|
E|-------------------------------------------------|-------------------------------------------6--8--|


   1  e  +  a  2  e  +  a  3  e  +  a  4  e  +  a    1  e  +  a  2  e  +  a  3  e  +  a  4  e  +  a
G|-------------------------------------------------|-------------------------------------------------|
D|-------------------------------------------------|-------------------------------------------------|
A|-6--8--8-----8-----8--8-----8--8-----8-----8--6--|-6-----6-----6-----6--6-----6--6-----6-----6--6--|
E|-------------------------------------------------|-------------------------------------------------|


   1  e  +  a  2  e  +  a  3  e  +  a  4  e  +  a    1  e  +  a  2  e  +  a  3  e  +  a  4  e  +  a
G|-------------------------------------------------|-------------------------------------------------|
D|-------------------------------------------------|-------------------------------------------------|
A|-5-----5-----5-----5--5-----5--5-----5-----5--5--|-6--8--8-----8-----8--8-----8--8-----8-----8--8--|
E|-------------------------------------------------|-------------------------------------------------|

  [Chorus 3]
   1  e  +  a  2  e  +  a  3  e  +  a  4  e  +  a    1  e  +  a  2  e  +  a  3  e  +  a  4  e  +  a
G|-------------------------------------------------|-------------------------------------------------|
D|-------------------------------------------------|-------------6-----------------------------------|
A|-6--8-----8--------8--8-----8--8-----8-----------|-------------------------------------3-----6-----|
E|-------------------------------------------------|-4-----4--------------4-----4--4-----------------|


   1  e  +  a  2  e  +  a  3  e  +  a  4  e  +  a    1  e  +  a  2  e  +  a  3  e  +  a  4  e  +  a
G|-------------------------------------------------|-------------------------------------------------|
D|-------------8-----------------------------------|-------------------------------------------------|
A|-------------------------------------5-----6-----|-8-----8-----8--------8-----8--6-----3-----------|
E|-6-----6--------------6-----6--6-----------------|-------------------------------------------4-----|


   1  e  +  a  2  e  +  a  3  e  +  a  4  e  +  a    1  e  +  a  2  e  +  a  3  e  +  a  4  e  +  a
G|-------------------------------------------------|-------------------------------------------------|
D|----------------------3-----3--3-----------------|-------------6-----------------------------------|
A|-------------------------------------------------|----------------------3--3-----4-----5-----6-----|
E|-1-----1-----1-----------------------------1-----|-4-----4--------------------4--------------------|


   1  e  +  a  2  e  +  a  3  e  +  a  4  e  +  a    1  e  +  a  2  e  +  a  3  e  +  a  4  e  +  a
G|-------------------------------------------------|-------------------------------------------------|
D|-------------8-----------------------------------|-------------------------------------------------|
A|----------------------------5--------6-----7-----|-8-----8-----8-----8-----6--6--5-----------6-----|
E|-6-----6--------------6--6--------6--------------|-------------------------------------8-----------|


   1  e  +  a  2  e  +  a  3  e  +  a  4  e  +  a    1  e  +  a  2  e  +  a  3  e  +  a  4  e  +  a
G|-------------------------------------------------|-------------------------------------------------|
D|-------------------------------------------------|-------------6-----------------------------------|
A|-8-----8-----8--------6--8--6--8-----6-----5-----|----------------------3--------4-----5-----6-----|
E|-------------------------------------------------|-4-----4-----------4--------4--------------------|


   1  e  +  a  2  e  +  a  3  e  +  a  4  e  +  a    1  e  +  a  2  e  +  a  3  e  +  a  4  e  +  a
G|-------------------------------------------------|-------------------------------------------------|
D|-------------8-----------------------------------|-------------------------------------------------|
A|----------------------5--------6-----------7-----|-8-----8-----8-----6--8-----6--------6-----7----6|
E|-6-----6--------6-----------6--------------------|-------------------------------8-----------------|

  [Bridge 2]
   1  e  +  a  2  e  +  a  3  e  +  a  4  e  +  a    1  e  +  a  2  e  +  a  3  e  +  a  4  e  +  a
G|-------------------------------------------------|-------------------------------------------------|
D|-------------------------------------------------|-------------------------------------------------|
A|h8-----8---6h8-----8--8-----8--8-----8-----8--8--|-6-----6--6--6-----6--6-----6--6-----6-----6--6--|
E|-------------------------------------------------|-------------------------------------------------|


   1  e  +  a  2  e  +  a  3  e  +  a  4  e  +  a    1  e  +  a  2  e  +  a  3  e  +  a  4  e  +  a
G|-------------------------------------------------|-------------------------------------------------|
D|-------------------------------------------------|-------------------------------------------------|
A|-5-----------5-----5--5-----5--5-----5-----5--5--|-8-----8-----8-----8--8-----8--8-----8-----8--8--|
E|-------------------------------------------------|-------------------------------------------------|


   1  e  +  a  2  e  +  a  3  e  +  a  4  e  +  a    1  e  +  a  2  e  +  a  3  e  +  a  4  e  +  a
G|-------------------------------------------------|-------------------------------------------------|
D|-------------------------------------------------|-------------------------------------------------|
A|-6--8--8-----8-----8--8-----8--8-----8-----8--6--|-6-----6-----6-----6--6-----6--6-----6-----6--6--|
E|-------------------------------------------------|-------------------------------------------------|


   1  e  +  a  2  e  +  a  3  e  +  a  4  e  +  a    1  e  +  a  2  e  +  a  3  e  +  a  4  e  +  a
G|-------------------------------------------------|-------------------------------------------------|
D|-------------------------------------------------|-------------------------------------10-14-------|
A|-5-----5-----5--------5--5--5--5-----5-----5--5--|-8-----8-----8-----8--8--8--8--8-----------------|
E|-------------------------------------------------|-------------------------------------------------|

  [Breakdown]
   1  e  +  a  2  e  +  a  3  e  +  a  4  e  +  a    1  e  +  a  2  e  +  a  3  e  +  a  4  e  +  a
G|-------------------------------------------------|-------------------------------------------------|
D|-------------------------------------------------|-------------------------------------------------|
A|-8-----------------------------------------------|-------------------------------------------------|
E|-------------------------------------------------|-------------------------------------------------|


   1  e  +  a  2  e  +  a  3  e  +  a  4  e  +  a    1  e  +  a  2  e  +  a  3  e  +  a  4  e  +  a
G|-------------------------------------------------|-------------------------------------------------|
D|-------------------------------------------------|-------------------------------------------------|
A|-------------------------------------------------|-------------------------------------------------|
E|-------------------------------------------------|-------------------------------------------------|


   1  e  +  a  2  e  +  a  3  e  +  a  4  e  +  a    1  e  +  a  2  e  +  a  3  e  +  a  4  e  +  a
G|-------------------------------------------------|-------------------------------------------------|
D|-15----------------------------------------------|-------------------------------------------------|
A|-------------------------------------------------|-------------------------------------------------|
E|-------------------------------------------------|-------------------------------------------------|


   1  e  +  a  2  e  +  a  3  e  +  a  4  e  +  a    1  e  +  a  2  e  +  a  3  e  +  a  4  e  +  a
G|-------------------------------------------------|-------------------------------------------------|
D|-------------------------------------------------|-15\15\14\13\12\12\10\10\8\\8\\7\\7\\6\\6\\5\\5\\|
A|-------------------------------------------------|-------------------------------------------------|
E|-------------------------------------------------|-------------------------------------------------|

  [Chorus 4]
   1  e  +  a  2  e  +  a  3  e  +  a  4  e  +  a    1  e  +  a  2  e  +  a  3  e  +  a  4  e  +  a
G|-------------------------------------------------|-------------------------------------------------|
D|-------------------------------------------------|-------------------------------------------------|
A|-6--8-----6--8-----8--8-----6--8-----8-----8-----|-------------3--------4--------5-----------6-----|
E|-------------------------------------------------|-4-----4-----------4--------4--------------------|


   1  e  +  a  2  e  +  a  3  e  +  a  4  e  +  a    1  e  +  a  2  e  +  a  3  e  +  a  4  e  +  a
G|-------------------------------------------------|-------------10-10-------------------------------|
D|-------8--8--8-----8--6--------5-----------------|-------------------7--7--8-----9-----10----7-----|
A|-------------------------------------6-----7-----|-8-----8-----------------------------------------|
E|-6-----------------------------------------------|-------------------------------------------------|


   1  e  +  a  2  e  +  a  3  e  +  a  4  e  +  a    1  e  +  a  2  e  +  a  3  e  +  a  4  e  +  a
G|-------------------------------------------------|-------------------------------------------8-----|
D|----------------------10----10-8-----6-----------|-6-----6--5--6-----5--6--6--5--6-----7--10-------|
A|-8-----8-----8-----8-----------------------8-----|-------------------------------------------------|
E|-------------------------------------------------|-------------------------------------------------|


   1  e  +  a  2  e  +  a  3  e  +  a  4  e  +  a    1  e  +  a  2  e  +  a  3  e  +  a  4  e  +  a
G|-------------------------------------------------|-------------------------------------------------|
D|-8-----8-----8-----6--8-----6--8-----6-----------|-------------------------------------------------|
A|-------------------------------------------------|-8-----8--6-----6--5-----5-----------------------|
E|-------------------------------------------------|----------------------------8-----8--6-----5-----|


   1  e  +  a  2  e  +  a  3  e  +  a  4  e  +  a    1  e  +  a  2  e  +  a  3  e  +  a  4  e  +  a
G|-------------------------------------------------|-------------------------------------------------|
D|-------------------------------------------------|-------------------------------------------------|
A|-------------0-----0--1-----1--2-----3-----3-----|-------------3--------4--------5-----6-----------|
E|-1-----1-----------------------------------------|-4-----4-----------4--------4--------------4-----|


   1  e  +  a  2  e  +  a  3  e  +  a  4  e  +  a    1  e  +  a  2  e  +  a  3  e  +  a  4  e  +  a
G|-------------------------------------------------|----------------------------8--------------------|
D|-------------------------------------------------|----------------------8--10----10-8--6-----------|
A|-------------5--------6-----6-----6--7-----7-----|-8-----8-----8-----8-----------------------8--6--|
E|-6-----6--------6--------------------------------|-------------------------------------------------|


   1  e  +  a  2  e  +  a  3  e  +  a  4  e  +  a    1  e  +  a  2  e  +  a  3  e  +  a  4  e  +  a
G|-------------------------------------------------|-------------------------------------------------|
D|-------------------------------------------------|-------------------------------------------------|
A|-8-----8-----8-----8--6-----6--5-----------------|-------------------6--------6--------------------|
E|-------------------------------------------8-----|-4-----4-----6--8-----8--------8-----6-----4-----|


   1  e  +  a  2  e  +  a  3  e  +  a  4  e  +  a    1  e  +  a  2  e  +  a  3  e  +  a  4  e  +  a
G|-------------------------------------------------|-------------------------------------------------|
D|-------8-----------------------------------------|-------------------------------------------------|
A|-------------5--------6--------6-----------7-----|-8-----8-----8-----8--8-----8--8-----8-----8-----|
E|-6-----------------6--------6--------------------|-------------------------------------------------|

  [Bridge 3]
   1  e  +  a  2  e  +  a  3  e  +  a  4  e  +  a    1  e  +  a  2  e  +  a  3  e  +  a  4  e  +  a
G|-------------------------------------------------|-------------------------------------------------|
D|-------------------------------------------------|-------------------------------------------------|
A|-6--8--8--8--8-----8--8-----8--8-----15----------|-6-----6--6--6-----6--6-----6--6-----15----------|
E|-------------------------------------------------|-------------------------------------------------|


   1  e  +  a  2  e  +  a  3  e  +  a  4  e  +  a    1  e  +  a  2  e  +  a  3  e  +  a  4  e  +  a
G|-------------------------------------------------|-------------------------------------------------|
D|-------------------------------------------------|-------------------------------------------------|
A|-5-----5--5--5-----5--5--------6-----------7-----|-8-----8--6-----6--5-----------------------------|
E|----------------------------6--------------------|-------------------------8--8-----8--6-----4-----|


   1  e  +  a  2  e  +  a  3  e  +  a  4  e  +  a    1  e  +  a  2  e  +  a  3  e  +  a  4  e  +  a
G|-------------------------------------------------|-------------------------------------------------|
D|-------------------------------------------------|-------------------------------------------------|
A|-------------0-----0--0--0--1--1-----2-----3-----|-6-----6-----6-----5--6-----5--6-----5-----6-----|
E|-1-----1-----------------------------------------|-------------------------------------------------|


   1  e  +  a  2  e  +  a  3  e  +  a  4  e  +  a    1  e  +  a  2  e  +  a  3  e  +  a  4  e  +  a
G|-------------------------------------------------|-------------------------------------------------|
D|----------------------10----10-8-----------6-----|-------------------------------------------------|
A|-5-----5-----5-----5-----------------------------|-8-----8--6-----6--5-----------------------------|
E|-------------------------------------------------|-------------------------8--8-----8--6-----4-----|

  [Outro]
   1  e  +  a  2  e  +  a  3  e  +  a  4  e  +  a    1  e  +  a  2  e  +  a  3  e  +  a  4  e  +  a
G|-------------------------------------------------|-------------------------------------------------|
D|-------------------------------------------------|-------------------------------------------------|
A|-------------0-----0--1--1--1--2-----3-----------|-------------------------------------2--3--------|
E|-1-----1-----------------------------------1-----|-4-----4-----4-----3--4-----3--4-----------------|


   1  e  +  a  2  e  +  a  3  e  +  a  4  e  +  a    1  e  +  a  2  e  +  a  3  e  +  a  4  e  +  a
G|-------------------------------------------------|-------------------------------------------------|
D|----------------------8--------------------------|----------------------6-----10-8-----8-----6-----|
A|-------------5-----------------5-----------6-----|-8-----8-----8-----8-----------------------------|
E|-6-----6-----------6--------6--------------------|-------------------------------------------------|


   1  e  +  a  2  e  +  a  3  e  +  a  4  e  +  a    1  e  +  a  2  e  +  a  3  e  +  a  4  e  +  a
G|-------------------------------------------------|-------------------------------------------------|
D|-------------------------------------------------|-------------6-----------------------------------|
A|-8-----8-----6-----8--8-----6--8-----8-----------|----------------------3--------6-----------3-----|
E|-------------------------------------------7-----|-4-----4-----------4--------4--------------------|


   1  e  +  a  2  e  +  a  3  e  +  a  4  e  +  a    1  e  +  a  2  e  +  a  3  e  +  a  4  e  +  a
G|-------------------------------------------------|-------------------------------------------------|
D|----------------------8--------------------------|-------------7--------8--------8-----9-----10----|
A|-------------------------------5-----6-----7-----|-8-----8-----------8--------8--------------------|
E|-6-----6-----6-----6--------6--------------------|-------------------------------------------------|


   1  e  +  a  2  e  +  a  3  e  +  a  4  e  +  a    1  e  +  a  2  e  +  a  3  e  +  a  4  e  +  a
G|-------------------------------------------------|-------------------------------------------------|
D|-------------7--7--7--8-----8--9-----10----------|-------6-----6-----6--6-----5--6-----6--10-------|
A|-8-----8-----------------------------------8-----|-6--8--------------------------------------------|
E|-------------------------------------------------|-------------------------------------------------|


   1  e  +  a  2  e  +  a  3  e  +  a  4  e  +  a    1  e  +  a  2  e  +  a  3  e  +  a  4  e  +  a
G|-------------------------------------------------|-------------------------------------------------|
D|-8-----8--7--8-----7--8--------8-----8-----6-----|-------------7--------8--------8-----9-----10----|
A|-------------------------------------------------|-8-----8-----------8--------8--------------------|
E|-------------------------------------------------|-------------------------------------------------|


   1  e  +  a  2  e  +  a  3  e  +  a  4  e  +  a    1  e  +  a  2  e  +  a  3  e  +  a  4  e  +  a
G|-------------10-10-10-10----8--8--5--5-----------|-------------------------------------------------|
D|-------------------------------------------8-----|-6-----6-----6-----5--6-----5--6-----9-----6-----|
A|-8-----8-----------------------------------------|-------------------------------------------------|
E|-------------------------------------------------|-------------------------------------------------|


   1  e  +  a  2  e  +  a  3  e  +  a  4  e  +  a    1  e  +  a  2  e  +  a  3  e  +  a  4  e  +  a
G|-------------------------------------------------|-------------------------------------------------|
D|-7--8--8-----8--6--8--8-----6--8b----------6-----|-------------------------------------------------|
A|-------------------------------------------------|-8-----8--8--8--8--8--8--6--6--5-----------------|
E|-------------------------------------------------|-------------------------------------8-----4--4--|


   1  e  +  a  2  e  +  a  3  e  +  a  4  e  +  a    1  e  +  a  2  e  +  a  3  e  +  a  4  e  +  a
G|-------------------------------------------------|-------------------------------------------------|
D|-------------------------------------------------|-------------------------------------------------|
A|-------------0--0--0--0--1--1--2-----3-----------|-6-----6-----6-----5--6-----5--6-----6-----8-----|
E|-1-----1-----------------------------------1-----|-------------------------------------------------|


   1  e  +  a  2  e  +  a  3  e  +  a  4  e  +  a    1  e  +  a  2  e  +  a  3  e  +  a  4  e  +  a
G|-------------------------------------------------|-------------------------------------------------|
D|-------------8-----------------------------------|-------5-----6-----7--7--8--8--9-----10----------|
A|-5-----5-----------5--6-----5--6-----6-----7-----|-8-----------------------------------------10-10-|
E|-------------------------------------------------|-------------------------------------------------|


   1  e  +  a  2  e  +  a  3  e  +  a  4  e  +  a    1  e  +  a  2  e  +  a  3  e  +  a  4  e  +  a
G|-10-10-10-10-8--10-10-8--10-10-10----10----10-10-|-2--8--8--8--8-----8--7--8--8--8-----8-----8-----|
D|-------------------------------------------------|-------------------------------------------------|
A|-------------------------------------------------|-------------------------------------------------|
E|-------------------------------------------------|-------------------------------------------------|


   1  e  +  a  2  e  +  a  3  e  +  a  4  e  +  a    1  e  +  a  2  e  +  a  3  e  +  a  4  e  +  a
G|-3--7--7--7--7-----7--7-----7--5-----------------|-------------------------------------------------|
D|-------------------------------------8-----7-----|----------7-----7--8-----8--9-----9--10----6-----|
A|-------------------------------------------------|-8-----8-----------------------------------------|
E|-------------------------------------------------|-------------------------------------------------|


***********************************
| \   Slide down
| h   Hammer on
| b   Bend note
***********************************
Suggest correction
Creating personal tab
Creating personal tab
You can edit any tab online and save it as your Personal.

You can edit, replace or remove any tab part or add personal notes – all changes will be seen only by you.

Personal tabs can be accessed anytime from any device, even offline.
Learn more »
Give kudos to tab author, rate the tab!
1 2 3 4 5
comments
print report bad tab
guest
You may want to rate the tab now too:
select rating
Wanna post a correction for this tab? Suggest correction