Oops, an error
Loading. Please wait.

Make Me Pure chords

version 2
version 2

Whole song

5,946 views 39 this week
2 commentsread comments
1 2 3 4 5
1 last vote to show rating
add to favorites
×
Save as Personal and add changes to this tab that will be seen only by you. Learn more ›
×
You can save this tab as Personal to edit and correct it or add notes. All changes will be seen only by you. Learn more »
launch autoscroll
font size
0
reset
transpose
0
reset
display chords
guitar tuner
edit
Autoscroll
slow
fast
+/-
esc
set tempo
stop
Author
Strumming
There is no strumming pattern for this song yet. and get +5 IQ
---------------------------------------------------------------------------
PepoTABS
---------------------------------------------------------------------------
Artist:         Robbie Williams
Title:          Make Me Pure
---------------------------------------------------------------------------


Riff 1     
                  A
|---0-0---0-0-0---0---0----------------------------------------------|
|---3-3---3-3-3---2---0----------------------------------------------|
|---2-2---2-2-2---2---2----------------------------------------------|
|---2-2---2-2-2---2---2----------------------------------------------|
|---0-0---0-0-0---0---0----------------------------------------------|
|--------------------------------------------------------------------|
    So I sing a song
    To reel 'em in

                  D                     
|---0-0---0-0-0---2--------------------------------------------------|
|---3-3---3-3-3---3--------------------------------------------------|
|---2-2---2-2-2---2--------------------------------------------------|
|---2-2---2-2-2---0--------------------------------------------------|
|---0-0---0-0-0---0--------------------------------------------------|
|--------------------------------------------------------------------|
                It's a song I sung before
     D                         A
|------------------------------0---0---------------------------------|
|------------------------------2---0---------------------------------|
|------------------------------2---2---------------------------------|
|------------------------------2---2---------------------------------|
|------------------------------0---0---------------------------------|
|--------------------------------------------------------------------|
    And a song I'm gonna sing again

                  D                     
|---0-0---0-0-0---2--------------------------------------------------|
|---3-3---3-3-3---3--------------------------------------------------|
|---2-2---2-2-2---2--------------------------------------------------|
|---2-2---2-2-2---0--------------------------------------------------|
|---0-0---0-0-0---0--------------------------------------------------|
|--------------------------------------------------------------------|
                I mean every word
     D                             A
|----------------------------------0---0-----------------------------|
|----------------------------------2---0-----------------------------|
|----------------------------------2---2-----------------------------|
|----------------------------------2---2-----------------------------|
|----------------------------------0---0-----------------------------|
|--------------------------------------------------------------------|
    I don't mean a single one of them



     E
Oh Lord
          D
Make me pure
         A
But not yet 


Tell a joke
Tell it twice
If no one else is laughing
Then why am I
I split my sides both times
And laugh untill I crie
Oh Lord
Please, make me pure
But not yet


Don't have to try
I just dial it in
I've never found a job
That for me was worth bothering
I've got a ton of selfish genes
And lazy bones beneath this skin
Oh Lord
Make me pure
But not yet


Smoking kills
Sex sells
I've got one hand in my pocket
But the other one looks cool as hell
I know I'm gonna die
So my revenge is living well
Oh Lord
Make me pure
But not yet

C            G   
I stopped praying
      Am                 C
So I hope this song will do
            D       B 
I wrote it all for you
C          G
I'm not perfect
         Am                 B
But you don't mind that, do you?
                D                 B
I know you're there to pull me through
Aren't you?
Suggest correction
Creating personal tab
Creating personal tab
You can edit any tab online and save it as your Personal.

You can edit, replace or remove any tab part or add personal notes – all changes will be seen only by you.

Personal tabs can be accessed anytime from any device, even offline.
Learn more »
Give kudos to tab author, rate the tab!
1 2 3 4 5
comments
print report bad tab
2 comments total.
0 reply
Ilignore 72 Mar 11, 2007 05:09 AM

The best of the tree!

Nice work!

+2 reply
dry_county 41 Sep 26, 2010 08:03 PM

This is the correct bridge:

F C
I stopped praying
Dm F
So I hope this song will do
G E
I wrote it all for you
F C
I'm not perfect
Dm F
But you don't mind that, do you?
G E
I know you're there to pull me through

guest
You may want to rate the tab now too:
select rating
Wanna post a correction for this tab? Suggest correction