Oops, an error
Loading. Please wait.

Song 3 Bass Tab

228 views 1 this week
no commentswrite comment
1 2 3 4 5
please rate
add to favorites
launch autoscroll
font size
0
reset
guitar tuner
Autoscroll
slow
fast
+/-
esc
set tempo
stop
Help us to improve Ultimate-Guitar.com Take our survey!
×
Contributor
Difficulty
4useless 2,773
novice
Artist: Robbie Williams
Song: Song 3
Album: Escapology (2002)
Bassist: Phil Spalding
Tuning: Standard

Intro and verse:

G|-------|
D|3-5-3\-|
A|-------|
E|-------|

G|----------------|----------------|----------------|----------------|
D|----------------|----------------|----------------|----------------|
A|----------------|1-1-1-----------|----------------|3-3-3-1-1-1-1-1-|
E|1-1-1-3-3-3-3-3-|------3-3-3-3-3-|1-1-1-3-3-3-3-3-|----------------| x3

Pre-chorus:

G|----------------|----------------|----------------|----------------|
D|----------------|----------------|----------------|----------------|
A|7-7-7-7-7-7-7-7-|----------------|----------------|------------5-6-|
E|----------------|5-5-5-5-5-5-5-5-|8-8-8-8-8-8-8-8-|8-8-8-8-8-8-----|

G|----------------|----------------|----------------|----------------|
D|----------------|----------------|----------------|----------------|
A|7-7-7-7-7-7-7-7-|----------------|----------------|----------------|
E|----------------|5-5-5-5-5-5-5-5-|8-8-8-8-8-8-8-8-|8-7-8-7-8-7-8-7-|

Chorus:

G|----------------|----------------|----------------|----------------|
D|----------------|----------------|----------------|----------------|
A|----------------|----------------|6-6-6-6-6-6-6-6-|3-3-3-3-3-3-3-3/|
E|3-3-3-3-3-3-3-3-|6-6-6-6-6-6-6-6-|----------------|----------------|

G|----------------|----------------|----------------|----------------|
D|5-5-5-5-5-5-5-5-|8-8-8-8-8-8-8-8-|----------------|----------------|
A|----------------|----------------|6-6-6-6-6-6-6-6-|3-3-3-3-3-3-3---|
E|----------------|----------------|----------------|--------------0-|

Verse:

G|----------------|----------------|----------------|----------------|
D|----------------|----------------|----------------|----------------|
A|----------------|1-1-1-----------|----------------|3-3-3-1-1-1-1-1-|
E|1-1-1-3-3-3-3-3-|------3-3-3-3-3-|1-1-1-3-3-3-3-3-|----------------| x3

Pre-chorus:

G|----------------|----------------|5-5-5-5-5-5-5-5-|5-4-4-----------|
D|----------------|7-7-7-7-7-7-7-7-|----------------|------7-7-5-5-5-|
A|7-7-7-7-7-7-7-7-|----------------|----------------|----------------|
E|----------------|----------------|----------------|----------------|

G|----------------|----------------|----------------|----------------|
D|----------------|----------------|----------------|----------------|
A|7-7-7-7-7-7-7-7-|----------------|----------------|----------------|
E|----------------|5-5-5-5-5-5-5-5-|8-8-8-8-8-7-8-7-|8-7-8-7-8-0-1-2-|

Chorus:

G|----------------|----------------|----------------|----------------|
D|----------------|----------------|----------------|----------------|
A|----------------|----------------|6-6-6-6-6-6-6-6-|3-3-3-3-3-3-3-3-|
E|3-3-3-3-3-3-3-3-|6-6-6-6-6-6-6-6-|----------------|----------------| x2

G|----------------|----------------|----------------|----------------|
D|5-5-5-5-5-5-5-5-|8-8-8-8-8-8-8-8-|----------------|----------------|
A|----------------|----------------|6-6-6-6-6-6-6-6-|3-3-3-3-3-1-1-0-|
E|----------------|----------------|----------------|----------------|

G|----------------|----------------|----------------|----------------|
D|----------------|----------------|----------------|----------------|
A|----------------|----------------|6-6-6-6-6-6-6-6-|3-3-3-3-3-3-3-3/|
E|3-3-3-3-3-3-3-3-|6-6-6-6-6-6-6-6-|----------------|----------------|

Interlude:

G|----------------|----------------|----------------|----------------|
D|------5-5-5-5-5-|8-8-8-5-5-5-5-5-|------5-5-5-5-5-|----------------|
A|8-8-8-----------|----------------|8-8-8-----------|------------5---|
E|----------------|----------------|----------------|8-8-8-6-6-6---6-|

G|----------------|----------------|----------------|----------------|
D|------5-5-5-5-5-|8-8-8-5-5-5-5-5-|------5-5-5-5-5-|----------------|
A|8-8-8-----------|----------------|8-8-8-----------|----------------|
E|----------------|----------------|----------------|8-8-8-6-6-6-6-6-|

Pre-chorus:

G|----------------|----------------|----------------|----------------|
D|----------------|----------------|----------------|----------------|
A|7-7-7-7-7-7-7-7-|----------------|----------------|----------------|
E|----------------|5-5-5-5-5-5-5-5-|8-8-8-8-8-8-8-8-|8-8-8-8-8-7-8-7-|

G|----------------|----------------|----------------|----------------|
D|----------------|7-7-7-7-7-7-7-7-|----------------|----------------|
A|7-7-7-7-7-7-7-7-|----------------|----------------|----------------|
E|----------------|----------------|8-8-8-8-8-8-8-8-|8-7-8-7-8-0-1-2-|

Chorus:

G|----------------|----------------|----------------|----------------|
D|----------------|----------------|----------------|----------------|
A|----------------|----------------|6-6-6-6-6-6-6-6-|3-3-3-3-3/7-7---|
E|3-3-3-3-3-3-3-3-|6-6-6-6-6-6-6-6-|----------------|--------------8\|

G|----------------|----------------|----------------|----------------|
D|----------------|----------------|----------------|------------3-4-|
A|----------------|----------------|6-6-6-6-6-6-6-6-|3-3-3-3-3-5-----|
E|3-3-3-3-3-3-3-3-|6-6-6-6-6-6-6-6-|----------------|----------------|

G|----------------|----------------|----------------|----------------|
D|5-5-5-5-5-5-5-5-|8-8-8-8-8-8-8-8-|----------------|----------------|
A|----------------|----------------|6-6-6-6-6-6-6-6-|3-3-3-3-3---3---|
E|----------------|----------------|----------------|----------6---6-|

G|----------------|----------------|----------------|----------------|
D|----------------|----------------|----------------|----------------|
A|----------------|----------------|6-6-6-6-6-6-6-6-|3-3-3-3-3-3-3-3-|
E|3-3-3-3-3-3-3-3-|6-6-6-6-6-6-6-6-|----------------|----------------|

Outro:

G|----------------|----------------|----------------|----------------|
D|----------------|----------------|----------------|----------------|
A|----------------|1-1-1-----------|----------------|3-3-3-1-1-1-1-1-|
E|1-1-1-3-3-3-3-3-|------3-3-3-3-3-|1-1-1-3-3-3-3-3-|----------------|

G|----------------|----------------|----------------|----------------|
D|----------------|----------------|----------------|----------------|
A|----------------|1-1-1-----------|----------------|3-3---1~--------|
E|1-1-1-3-3-3-3-3-|------3-3-3-3-3-|1-1-1-3-3-3-3-3-|----------------|

/  slide up
\  slide down
h  hammer-on
p  pull-off
~  let ring
comments
We did not receive enough feedback on this tab! Please rate:
print report bad tab
1 2 3 4 5
I want to post or [tab]
guest
You may want to rate the tab now too:
select rating
Please do not post tabs as comments. Select "correction" instead!