Oops, an error
Loading. Please wait.

Strong bass

version 1
version 1

Whole song

Interactive

121 views 1 this week
no commentswrite comment
1 2 3 4 5
2 more votes to show rating
add to favorites
×
Save as Personal and add changes to this tab that will be seen only by you. Learn more ›
×
You can save this tab as Personal to edit and correct it or add notes. All changes will be seen only by you. Learn more »
launch autoscroll
font size
0
reset
guitar tuner
edit
Autoscroll
slow
fast
+/-
esc
set tempo
stop
Title: Strong
Artist: Robbie Williams
Album: I've Been Expecting You
Tuning: Standard - 1/2 step down (D# G# C# F#)
Tab Author: Pearce Hamblin (The Bass Diaries)

   [Intro]
    1  e  +  a  2  e  +  a  3  e  +  a  4  e  +  a    1  e  +  a  2  e  +  a  3  e  +  a  4  e  +  a
F#|-------------------------------------------------|-------------------------------------------------|
C#|-------------------------------------------------|-------------------------------------------------|
G#|-------------------------------------------------|-------------------------------------------------|
D#|-------------------------------------------------|-------------------------------------------------|


    1  e  +  a  2  e  +  a  3  e  +  a  4  e  +  a    1  e  +  a  2  e  +  a  3  e  +  a  4  e  +  a
F#|-------------------------------------------------|-----------------------4h6-----4-----------------|
C#|-------------------------------------------------|-----------------------------------4h6-----4-----|
G#|-------------------------------------------------|-------------------------------------------------|
D#|-------------------------------------------------|-------------------------------------------------|


    1  e  +  a  2  e  +  a  3  e  +  a  4  e  +  a    1  e  +  a  2  e  +  a  3  e  +  a  4  e  +  a
F#|-------------------------------------------------|-------------------------------------------------|
C#|-------------------------------------------------|-------------------------------------------------|
G#|-------------------------------------------------|-------------------------------------------------|
D#|-0--------------------0--0-----0-----------------|-2--------------------2--2-----2-----------4-----|


    1  e  +  a  2  e  +  a  3  e  +  a  4  e  +  a    1  e  +  a  2  e  +  a  3  e  +  a  4  e  +  a
F#|-------------------------------------------------|-------------------------------------------------|
C#|-------------------------------------------------|-------------------------------------------------|
G#|-------------------------------------------4-----|-2-----------2--------0--2--0--2-----------------|
D#|-5--------------------5--5-----5-----------------|-------------------------------------4-----2-----|

   [Verse 1]
    1  e  +  a  2  e  +  a  3  e  +  a  4  e  +  a    1  e  +  a  2  e  +  a  3  e  +  a  4  e  +  a
F#|-------------------------------------------------|-------------------------------------------------|
C#|-------------------------------------------------|-------------------------------------------------|
G#|-------------------------------------------------|-------------------------------------------------|
D#|-0--------------------0--------0-----------------|-5--------------------4--5-----5-----------4-----|


    1  e  +  a  2  e  +  a  3  e  +  a  4  e  +  a    1  e  +  a  2  e  +  a  3  e  +  a  4  e  +  a
F#|-------------------------------------------------|-------------------------------------------------|
C#|-------------------------------------------------|-------------------------------------------------|
G#|-------------------------------------------------|-2--------------------1--2-----2-----------------|
D#|-2--------------------0--2-----2-----------2-----|-------------------------------------4-----2-----|


    1  e  +  a  2  e  +  a  3  e  +  a  4  e  +  a    1  e  +  a  2  e  +  a  3  e  +  a  4  e  +  a
F#|-------------------------------------------------|-------------------------------------------------|
C#|-------------------------------------------------|-------------------------------------------------|
G#|-------------------------------------------------|-------------------------------------------------|
D#|-0--------------------0--------0-----------------|-5--------------------4--5-----5-----4-----0-----|


    1  e  +  a  2  e  +  a  3  e  +  a  4  e  +  a    1  e  +  a  2  e  +  a  3  e  +  a  4  e  +  a
F#|-------------------------------------------------|-------------------------------------------------|
C#|-------------------------------------------------|-------------------------------------------------|
G#|-------------------------------------------------|-2-----------2--------1--2-----2-----2--0--------|
D#|-2--------------------0--2-----2-----4-----2-----|-------------------------------------------4-----|

   [Pre-Chorus 1]
    1  e  +  a  2  e  +  a  3  e  +  a  4  e  +  a    1  e  +  a  2  e  +  a  3  e  +  a  4  e  +  a
F#|-------------------------------------------------|-------------------------------------------------|
C#|-------------------------------------------------|-------------------------------------------------|
G#|-------------------------------------0-----2-----|-4-----------4--------0--2-----4-----0-----------|
D#|-2-----------2--------0--2-----2-----------------|-------------------------------------------4-----|


    1  e  +  a  2  e  +  a  3  e  +  a  4  e  +  a    1  e  +  a  2  e  +  a  3  e  +  a  4  e  +  a
F#|-------------------------------------------------|-------------------------------------------------|
C#|-------------------------------------------------|-------------------------------------------------|
G#|-------------------------------------0-----------|-2-----------2-----2-----2--0--2--0--------------|
D#|-2-----------2--------0--2-----2-----------2-----|-------------------------------------4-----2-----|

   [Chorus 1]
    1  e  +  a  2  e  +  a  3  e  +  a  4  e  +  a    1  e  +  a  2  e  +  a  3  e  +  a  4  e  +  a
F#|-------------------------------------------------|-------------------------------------------------|
C#|-------------------------------------------------|-------------------------------------------------|
G#|-------------------------------------------------|-------------------------------------------------|
D#|-0--------------------0--------0-----------------|-2-----------2--------0--2-----2-----------------|


    1  e  +  a  2  e  +  a  3  e  +  a  4  e  +  a    1  e  +  a  2  e  +  a  3  e  +  a  4  e  +  a
F#|-------------------------------------------------|-------------------------------------------------|
C#|-------------------------------------------------|-------------------------------------------------|
G#|-------------------------------------------------|-2-----------2-----2--2--2-----2-----------------|
D#|-5-----------5--------4--5-----5-----------5-----|-------------------------------------4-----2-----|


    1  e  +  a  2  e  +  a  3  e  +  a  4  e  +  a    1  e  +  a  2  e  +  a  3  e  +  a  4  e  +  a
F#|-------------------------------------------------|-------------------------------------------------|
C#|-------------------------------------------------|-------------------------------------------------|
G#|-------------------------------------------------|-------------------------------------------------|
D#|-0--------------------0--------0-----------------|-2--------------------2--2-----2-----------4-----|


    1  e  +  a  2  e  +  a  3  e  +  a  4  e  +  a    1  e  +  a  2  e  +  a  3  e  +  a  4  e  +  a
F#|-------------------------------------------------|-------------------------------------------------|
C#|-------------------------------------------------|-------------------------------------------------|
G#|-------------------------------------------4-----|-2-----------2--------0--2-----2-----------------|
D#|-5-----------5--------5--5-----5-----------------|-------------------------------------4-----2-----|

   [Verse 2]
    1  e  +  a  2  e  +  a  3  e  +  a  4  e  +  a    1  e  +  a  2  e  +  a  3  e  +  a  4  e  +  a
F#|-------------------------------------4-----------|-6-----------------------------------9-----------|
C#|-------------------------------------------------|-------------------------------------------------|
G#|-------------------------------------------------|-0-----------------------------------------------|
D#|-0-----------------------------------0-----------|-------------------------------------------------|


    1  e  +  a  2  e  +  a  3  e  +  a  4  e  +  a    1  e  +  a  2  e  +  a  3  e  +  a  4  e  +  a
F#|-6-----------------------------------9-----------|-11----------------------------13\\\\11////13----|
C#|-4-----------------------------------------------|-------------------------------------------------|
G#|-------------------------------------------------|-------------------------------------------------|
D#|-------------------------------------------------|-7-----------------------------------------------|


    1  e  +  a  2  e  +  a  3  e  +  a  4  e  +  a    1  e  +  a  2  e  +  a  3  e  +  a  4  e  +  a
F#|-------------------------------------4-----------|-6-----------------------------------9\\\\\\\\\\\|
C#|-------------------------------------------------|-------------------------------------------------|
G#|-------------------------------------------------|-0-----------------------------------------------|
D#|-0-----------------------------------------------|-------------------------------------------------|


    1  e  +  a  2  e  +  a  3  e  +  a  4  e  +  a    1  e  +  a  2  e  +  a  3  e  +  a  4  e  +  a
F#|-6-----------------------------------9-----------|-11-------------------11h13----11-11h13----------|
C#|-4-----------------------------------------------|-------------------------------------------------|
G#|-------------------------------------------------|-------------------------------------------------|
D#|-------------------------------------------------|-7-----------------------------------------------|

   [Pre-Chorus 2]
    1  e  +  a  2  e  +  a  3  e  +  a  4  e  +  a    1  e  +  a  2  e  +  a  3  e  +  a  4  e  +  a
F#|-------------------------------------------------|-------------------------------------------------|
C#|-------------------------------4-----------2-----|-------------------------------------------------|
G#|----------------------3--4-----------------------|-4-----------4-----------2-----4-----2-----0-----|
D#|-2-----------2-----------------------------------|----------------------4--------------------------|


    1  e  +  a  2  e  +  a  3  e  +  a  4  e  +  a    1  e  +  a  2  e  +  a  3  e  +  a  4  e  +  a
F#|-------------------------------------------------|-------------------------------4-----------------|
C#|-------------4-----------2-----4-----2-----------|----------------------3--4-----------4-----------|
G#|----------------------4--------------------4-----|-2-----------2-----------------------------2-----|
D#|-2-----------------------------------------------|-------------------------------------------------|

   [Chorus 2]
    1  e  +  a  2  e  +  a  3  e  +  a  4  e  +  a    1  e  +  a  2  e  +  a  3  e  +  a  4  e  +  a
F#|-------------------------------------------------|-------------------------------------------------|
C#|-------------------------------------------------|-------------------------------------------------|
G#|-------------------------------------------------|-------------------------------------------------|
D#|-0--------------------0--------0-----------------|-2-----------2--------0--2-----2-----------4-----|


    1  e  +  a  2  e  +  a  3  e  +  a  4  e  +  a    1  e  +  a  2  e  +  a  3  e  +  a  4  e  +  a
F#|-------------------------------------------------|-------------------------------------------------|
C#|-------------------------------------------------|-------------------------------------------------|
G#|-------------------------------------------4-----|-2-----------2--------0--2-----2-----------------|
D#|-5-----------5--------4--5-----5-----------------|-------------------------------------4-----2-----|


    1  e  +  a  2  e  +  a  3  e  +  a  4  e  +  a    1  e  +  a  2  e  +  a  3  e  +  a  4  e  +  a
F#|-------------------------------------------------|-------------------------------------------------|
C#|-------------------------------------------------|-------------------------------------------------|
G#|-------------------------------------------------|-------------------------------------------------|
D#|-0--------------------0--------0-----------------|-2-----------2--------0--2--0--2-----------4-----|


    1  e  +  a  2  e  +  a  3  e  +  a  4  e  +  a    1  e  +  a  2  e  +  a  3  e  +  a  4  e  +  a
F#|-------------------------------------------------|-------------------------------------4-----6-----|
C#|-------------------------------------------------|-------------------------------4-----------------|
G#|-------------------------------------------------|-2-----------2-----------6-----------------------|
D#|-5-----------5--------0--5-----5-----------------|-------------------------------------------------|

   [Bridge]
    1  e  +  a  2  e  +  a  3  e  +  a  4  e  +  a    1  e  +  a  2  e  +  a  3  e  +  a  4  e  +  a
F#|-7-----------------------7\\\\\6\\\\\4\\\\\\\\\\\|\2-----------------------------------------------|
C#|-------------------------------------------------|-------------------------------------------------|
G#|-------------------------------------------------|-------------------------------------------------|
D#|-------------------------------------------------|-------------------------------------------------|


    1  e  +  a  2  e  +  a  3  e  +  a  4  e  +  a    1  e  +  a  2  e  +  a  3  e  +  a  4  e  +  a
F#|-------------------------------------------------|-10----------11----------13----------14----------|
C#|-------------------------------------------------|-------------------------------------------------|
G#|-------------------------------------------------|-------------------------------------------------|
D#|-------------------------------------------------|-------------------------------------------------|


    1  e  +  a  2  e  +  a  3  e  +  a  4  e  +  a    1  e  +  a  2  e  +  a  3  e  +  a  4  e  +  a
F#|-11----------------------------------------------|-------------------------------------------------|
C#|-------------------------------11-12-11----9-----|-7-----------6-----------------------------------|
G#|-------------------------------------------------|-------------------------9-----------------------|
D#|-0-----------------------------0--0--0-----0-----|-------------------------------------7-----------|

   [Solo]
    1  e  +  a  2  e  +  a  3  e  +  a  4  e  +  a    1  e  +  a  2  e  +  a  3  e  +  a  4  e  +  a
F#|-------------------------------4-----------------|-------------6-----9-----------8-----6-----------|
C#|-------------------------6-----------------------|-------8-----------------------------------------|
G#|-7-----------------------------------------------|-9-----------------------------------------------|
D#|-------------------------------------------------|-------------------------------------------------|


    1  e  +  a  2  e  +  a  3  e  +  a  4  e  +  a    1  e  +  a  2  e  +  a  3  e  +  a  4  e  +  a
F#|-------------------------4-----6-----------------|-4-----------4-----------6-----4-----------------|
C#|-7-----------------------------------------------|-------------------------------------6-----4-----|
G#|-------------------------------------------------|-------------------------------------------------|
D#|-------------------------------------------------|-------------------------------------------------|


    1  e  +  a  2  e  +  a  3  e  +  a  4  e  +  a    1  e  +  a  2  e  +  a  3  e  +  a  4  e  +  a
F#|-------------------------------4-----------------|-------------6-----9-----------8-----6-----------|
C#|-------------------------6-----------------------|-------8-----------------------------------------|
G#|-7-----------------------------------------------|-9-----------------------------------------------|
D#|-------------------------------------------------|-------------------------------------------------|


    1  e  +  a  2  e  +  a  3  e  +  a  4  e  +  a    1  e  +  a  2  e  +  a  3  e  +  a  4  e  +  a
F#|-------------------------------------------------|-------------------------------------------4-----|
C#|-7-----------7--------7--6-----------------------|-------------------------------4-----6-----------|
G#|-------------------------------9-----------7-----|-------------------------6-----------------------|
D#|-------------------------------------------------|-7-----------7-----------------------------------|

   [Pre-Chorus 3]
    1  e  +  a  2  e  +  a  3  e  +  a  4  e  +  a    1  e  +  a  2  e  +  a  3  e  +  a  4  e  +  a
F#|-------------------------------------------------|-------------------------------4-----------------|
C#|-4-----------4-----------2-----4-----2-----------|-------------------------4--6--------4--2--------|
G#|----------------------4--------------------2-----|-4-----------4--------4--------------------4-----|
D#|-------------------------------------------------|-------------------------------------------------|


    1  e  +  a  2  e  +  a  3  e  +  a  4  e  +  a    1  e  +  a  2  e  +  a  3  e  +  a  4  e  +  a
F#|-------------------------------------2-----4-----|-16----------------------14----12----------------|
C#|-4-----------4-----------2-----4-----------------|-12----------------------12----12----------------|
G#|----------------------4--------------------------|-------------------------------------------------|
D#|-------------------------------------------------|-------------------------------------------------|

                                                     [Chorus 3]
    1  e  +  a  2  e  +  a  3  e  +  a  4  e  +  a    1  e  +  a  2  e  +  a  3  e  +  a  4  e  +  a
F#|-14----------14----14-16-------14----------------|-------------------------------------------------|
C#|-12----12----------------------------14-16\\\\\\\|-------------------------------------------------|
G#|-------------------------------------------------|-------------------------------------------------|
D#|-------------------------------------------------|-0--------------------0--------0-----------------|


    1  e  +  a  2  e  +  a  3  e  +  a  4  e  +  a    1  e  +  a  2  e  +  a  3  e  +  a  4  e  +  a
F#|-------------------------------------------------|-------------------------------------------------|
C#|-------------------------------------------------|-------------------------------------------------|
G#|-------------------------------------------------|-------------------------------------------------|
D#|-2--------------------0--2--0--2-----------4-----|-5-----------5--------4--5-----5-----------------|


    1  e  +  a  2  e  +  a  3  e  +  a  4  e  +  a    1  e  +  a  2  e  +  a  3  e  +  a  4  e  +  a
F#|-------------------------------------------------|-------------------------------------------------|
C#|-------------------------------------------------|-------------------------------------------------|
G#|-2-----------2--------0--2-----2-----------------|-------------------------------------------------|
D#|-------------------------------------4-----2-----|-0--------------------0--0-----0-----------------|


    1  e  +  a  2  e  +  a  3  e  +  a  4  e  +  a    1  e  +  a  2  e  +  a  3  e  +  a  4  e  +  a
F#|-------------------------------------------------|-------------------------------------------------|
C#|-------------------------------------4-----------|-------------------------------------------------|
G#|-------------------------------------------4-----|-0-----------0--------0--0-----0-----------4-----|
D#|-2-----------2--------0--2-----2-----------------|-------------------------------------------------|

                                                     [Outro]
    1  e  +  a  2  e  +  a  3  e  +  a  4  e  +  a    1  e  +  a  2  e  +  a  3  e  +  a  4  e  +  a
F#|-------------------------------------------------|-------------------------------------------------|
C#|-------------------------------------------------|-------------------------------------------------|
G#|-2-----------2-----------2-----2-----------------|-------------------------------------------------|
D#|----------------------2--------------4-----2-----|-0--------------------0--0-----0-----------------|


    1  e  +  a  2  e  +  a  3  e  +  a  4  e  +  a    1  e  +  a  2  e  +  a  3  e  +  a  4  e  +  a
F#|-------------------------------------------------|-------------------------------------------------|
C#|-------------------------------------------------|-------------------------------------------------|
G#|-------------------------------0-----4-----------|-0-----------0--------0--0-----0-----------0-----|
D#|-2-----------2--------0--2-----------------2-----|-------------------------------------------------|


    1  e  +  a  2  e  +  a  3  e  +  a  4  e  +  a    1  e  +  a  2  e  +  a  3  e  +  a  4  e  +  a
F#|-------------------------------------------------|-------------------------------------------------|
C#|-------------------------------------------------|-------------------------------------------------|
G#|-2-----------2--------0--2-----2-----0-----------|-------------------------------------------------|
D#|----------------------------------------2--4-----|-0-----------0--------0--0-----0-----------0-----|


    1  e  +  a  2  e  +  a  3  e  +  a  4  e  +  a    1  e  +  a  2  e  +  a  3  e  +  a  4  e  +  a
F#|-------------------------------------------------|-------------------------------------------------|
C#|-------------------------------4-----------------|-------------------------------------------------|
G#|-------------------------------------4-----2-----|-0-----------0--------0--0-----------0-----------|
D#|-2-----------2--------0--2-----------------------|-------------------------------0-----------0-----|


    1  e  +  a  2  e  +  a  3  e  +  a  4  e  +  a    1  e  +  a  2  e  +  a  3  e  +  a  4  e  +  a
F#|-------------------4--6--8--6--4-----------------|-------------------------------------------------|
C#|-------------4--------------------6--4-----------|-------------------------------------------------|
G#|-2-----4--6-----------------------------6--4--2--|-------------------------------------------------|
D#|-------------------------------------------------|-0-----------0--------0--0-----0-----------0-----|


    1  e  +  a  2  e  +  a  3  e  +  a  4  e  +  a    1  e  +  a  2  e  +  a  3  e  +  a  4  e  +  a
F#|-------------------------------------------------|-------------------------------------------------|
C#|-------------------------------------------------|-------------------------------------------------|
G#|-------------------------------------------4-----|-------------------------------------------------|
D#|-2-----------2-----5--6--2-----5-----6-----------|-5-----------5--------0--5-----5-----5/////9-----|


    1  e  +  a  2  e  +  a  3  e  +  a  4  e  +  a    1  e  +  a  2  e  +  a  3  e  +  a  4  e  +  a
F#|-------------------------------------------------|-------------------------------------------------|
C#|-------------------------------------------------|-------------------------------------------------|
G#|-2-----------2--------0--2--0--2-----2-----------|-------------------------------------------------|
D#|-------------------------------------------4--2--|-0-----------0--------0--------0-----12\\\\\\\\\\|


    1  e  +  a  2  e  +  a  3  e  +  a  4  e  +  a    1  e  +  a  2  e  +  a  3  e  +  a  4  e  +  a
F#|-------------------------------------------------|-------------------------------------------------|
C#|-------------------------------------------------|-------------------------------------------------|
G#|-------------------------1-----2-----3-----4-----|-------------------------------------------------|
D#|-2-----------2--------2--------------------------|-5-----------5--------5--5-----5-----------5-----|


    1  e  +  a  2  e  +  a  3  e  +  a  4  e  +  a    1  e  +  a  2  e  +  a  3  e  +  a  4  e  +  a
F#|-------------------------------------------------|-------------------------------------------------|
C#|-------------------------------9-----------------|-------------------------------------------------|
G#|-------------------------6--9--------9-----------|-------------7-----------------7-----------------|
D#|-7-----------7-----------------------------7\\\\\|\0--------------------7--9-----------9-----7\\\\\|


    1  e  +  a  2  e  +  a  3  e  +  a  4  e  +  a    1  e  +  a  2  e  +  a  3  e  +  a  4  e  +  a
F#|-------------------------------------------------|-------------------------------------------------|
C#|-------------------------------------------------|-------------------------------------------------|
G#|-------------------------------2-----3-----4-----|-------------------------------------------------|
D#|-2-----------2-----4--5--2-----------------------|-5-----------5--------2--5-----5/////9-----5-----|


    1  e  +  a  2  e  +  a  3  e  +  a  4  e  +  a    1  e  +  a  2  e  +  a  3  e  +  a  4  e  +  a
F#|-------------------------------4-----------------|-------------------------------------------------|
C#|-------------------------------------------4-----|-------------2-----------------------------------|
G#|-2-----------2--------0--2-----------------------|----------------------2--------------------------|
D#|-------------------------------------------------|-0-----------------------4\\\\\0-----4-----3-----|


    1  e  +  a  2  e  +  a  3  e  +  a  4  e  +  a    1  e  +  a  2  e  +  a  3  e  +  a  4  e  +  a
F#|-------------------------------------------------|-------------------------------------------------|
C#|-------------------------------------------------|-------------------------------------------------|
G#|-------------------------------------------------|-------------------------------------------4-----|
D#|-2-----------2--------0--2--0--2-----2-----4-----|-5-----------5--------4--5--4--5-----5-----------|


    1  e  +  a  2  e  +  a  3  e  +  a  4  e  +  a
F#|-------------------------------8-----11----8-----|
C#|-------------------------9--11-------------------|
G#|-2-----------------9--11-------------------------|
D#|-------------------------------------------------|


***********************************
| /   Slide up
| \   Slide down
| h   Hammer on
***********************************

            
            
Suggest correction
Creating personal tab
Creating personal tab
You can edit any tab online and save it as your Personal.

You can edit, replace or remove any tab part or add personal notes – all changes will be seen only by you.

Personal tabs can be accessed anytime from any device, even offline.
Learn more »
Give kudos to tab author, rate the tab!
1 2 3 4 5
comments
print report bad tab
guest
You may want to rate the tab now too:
select rating
Wanna post a correction for this tab? Suggest correction