Oops, an error
Loading. Please wait.

Supreme Tab

version 1
version 1

Whole song

Interactive

6,414 views 9 this week
no commentswrite comment
1 2 3 4 5
x 3
add to favorites
launch autoscroll
font size
0
reset
how to read this tab
guitar tuner
Autoscroll
slow
fast
+/-
esc
set tempo
stop
Help us to improve Ultimate-Guitar.com Take our survey!
×
Author
Difficulty
novice
#################################################

Supreme by Robbie Williams

Chords 
--------------------
Dm     [X X 0 2 3 1]
Gm     [3 5 5 3 3 3]
C      [x 3 2 0 1 0]
F      [1 3 3 2 1 1]
Dm/F   [X X 3 2 3 1]
Fdim   [1 2 3 1 3 1]
Aadd4  [X 0 2 2 3 0]
A      [X 0 2 2 2 0]
Bb     [X 1 3 3 3 1]
--------------------

#################################################

[INTRO]

Dm

[VERSE]

Dm               Gm
Oh it seemed forever stopped today
         C           
All the lonely hearts in London
           F
Caught a plane and flew away
             Dm/F
And all the best women are married
          Fdim
All the handsome men are gay
          Aadd4   A
You feel deprived

Dm             Gm
Yeah are you questioning your size?
           C          
Is there a tumour in your humour,
           F
Are there bags under your eyes?

              Dm/F
Do you leave dents where you sit,
         Fdim
Are you getting on a bit?
             Aadd4 
Will you survive
             A
You must survive

[CHORUS]
              Dm         Bb
When there's no love in town 
              F                      A
This new century keeps bringing you down
          Dm             Bb
All the places you have been 
           F              A
Trying to find a love supreme
           Dm
A love supreme.

[VERSE]

Oh what are you really looking for?
Another partner in your life to abuse and to adore?
Is it lovely dovey stuff
Do you need a bit of rough?
Get on your knees

Yeah turn down the love songs that you hear
'Cause you can't avoid the sentiment
That echoes in your ear
Saying love will stop the pain 
Saying love will kill the fear
Do you believe?
You must believe

[CHORUS]

[INTERLUDE] Arranged for guitar

  Dm                       Gm                     C
                                |-3--|   |-3-|
e|-----------------8--6---|----------------------|---------------8---5-6-|
B|--8---6-------6---------|-10--8-10-8-6-5-6-5---|-----------------------|
G|-----------7------------|--------------------7-|-5---5--7--5-----------|
D|------------------------|----------------------|-----------------------|
A|------------------------|----------------------|-----------------------|
E|------------------------|----------------------|-----------------------|
  
  F                              Dm/F               Fdim
e|-5----5-----------------------|----------5----6--|-6-5-----------------------------|
B|----8---8---6-8-6--5-6-5----5-|------------------|-----8-6-5-----------------------|
G|--------------------------7---|-7----------------|-----------7-5-------------------|
D|------------------------------|------------------|---------------8-7-5-------------|
A|------------------------------|------------------|---------------------8-7-5-------|
E|------------------------------|------------------|---------------------------8-6-5-|

  Aadd4                        A
e|----------------------------|---------------------------------|
B|----------------------------|---------------------------------|
G|----------------------------|---------------------------------|
D|--------------------------/-|-7(8)tr--------------------------|
A|----------------------------|---------------------------------|
E|-5(6)tr-----------------\---|---------------------------------|

Dm

I spy with my little eye
Gm
Something beginning with ah..   Got my back up
C 
And now she's screaming so I've got to turn the track up
F
Sit back and watch the royalties stack up
Dm/F
I know this girl she likes to switch teams
Fdim                                                     Aadd4   A
And I'm a friend but I'm living for a love supreme

[CHORUS] 

[OUTRO]
Same chords as chorus

Come and live a love supreme
Don't let it get you down
Everybody lives for love


#################################################


Suggest correction
Give kudos to tab author, rate the tab!
1 2 3 4 5
comments
print report bad tab
guest
You may want to rate the tab now too:
select rating
Wanna post a correction for this tab? Suggest correction