Oops, an error
Loading. Please wait.

Tripping bass

version 2
version 2

Whole song

Interactive

727 views 1 this week
no commentswrite comment
1 2 3 4 5
2 more votes to show rating
add to favorites
×
Save as Personal and add changes to this tab that will be seen only by you. Learn more ›
×
You can save this tab as Personal to edit and correct it or add notes. All changes will be seen only by you. Learn more »
launch autoscroll
font size
0
reset
guitar tuner
edit
Autoscroll
slow
fast
+/-
esc
set tempo
stop
Author
Difficulty
Artist: Robbie Williams
Song: Tripping
Album: Intensive Care (2005)
Bassist: Davey Farragher
Tuning: Standard

Verse:

  +   +   +   +    +   +   +   +    +   +   +   +    +   +   +   +  
G|----------------|----------------|----------------|----7-----------|
D|7---7-5-7-8-7-5/|7---------------|7---7-5-7-8-7-5/|7---------------|
A|----------------|----8---5---5---|----------------|--------5---5---| 
E|----------------|----------------|----------------|----------------| all x3

G|----------------|----------------|----------------|----7-----------|
D|7---7-5-7-8-7-5/|7---------------|7---7-5-7-8-7-5/|7---------------|
A|----------------|----8---5---5---|----------------|--------5---5-7-|
E|----------------|----------------|----------------|----------------|

Chorus:

  +   +   +   +    +   +   +   +    +   +   +   +    +   +   +   +  
G|------------5-5-|----------------|----------------|----------------|
D|----------------|7-7-7-7-7-7-----|------------5---|----------------|
A|8-8-8-8-8-8-----|------------8-8-|5-5-5-5-5-5---8-|5-5-5-5-5-5-5-7-|
E|----------------|----------------|----------------|----------------| all x3

G|------------5-5-|----------------|----------------|----------------|
D|----------------|7-7-7-7-7-7-----|------------5---|----------------|
A|8-8-8-8-8-8-----|------------8-8-|5-5-5-5-5-5---8-|5-5-5-5-5-5-8\--|
E|----------------|----------------|----------------|----------------|

Play verse again:

Chorus (little bit different):

  +   +   +   +    +   +   +   +    +   +   +   +    +   +   +   +  
G|----------------|----------------|----------------|----------------|
D|----------------|7-7-7-7-7-7-----|------------5---|----------------|
A|8-8-8-8-8-8-8-8-|------------8-8-|5-5-5-5-5-5---8-|5-5-5-5-5-5-5-7-|
E|----------------|----------------|----------------|----------------|

G|------------5-5-|----------------|----------------|----------------|
D|----------------|7-7-7-7-7-7-----|------------5---|----------------|
A|8-8-8-8-8-8-----|------------8-8-|5-5-5-5-5-5---8-|5-5-5-5-5-5-5-7-|
E|----------------|----------------|----------------|----------------|

G|------------5-5-|----------------|----------------|----------------|
D|----------------|7-7-7-7-7-7-----|------------5---|----------------|
A|8-8-8-8-8-8-----|------------8-8-|5-5-5-5-5-5---8-|5-5-5-5-5-0-5-7-|
E|----------------|----------------|----------------|----------------|

G|------------5-5-|----------------|----------------|----------------|
D|----------------|7-7-7-7-7-7-----|------------5---|----------------|
A|8-8-8-8-8-8-----|------------8-8-|5-5-5-5-5-5---8-|5-5-5-5-5-5-8\--|
E|----------------|----------------|----------------|----------------|

Middle part:

  +   +   +   +    +   +   +   +    +   +   +   +    +   +   +   +  
G|------------7---|5---5-5-5-------|------------7---|5---7-----------|
D|5---5-5-5-------|------------8---|5---5-5-5-------|--------5-------|
A|----------------|----------------|----------------|----------------|
E|----------------|----------------|----------------|----------------| all x3

Chorus:

  +   +   +   +    +   +   +   +    +   +   +   +    +   +   +   +  
G|------------5-5-|----------------|----------------|----------------|
D|----------------|7-7-7-7-7-7-----|------------5---|----------------|  
A|8-8-8-8-8-8-----|------------8-8-|5-5-5-5-5-5---8-|5-5-5-5-5-5-5-7-|
E|----------------|----------------|----------------|----------------| all x4

G|------------5---|----------------|----------------|----------------|
D|----------------|7-7-7-7-7-7-----|------------5---|----------------|
A|8-8-8-8-8-8---8-|------------8-8-|5-5-5-5-5-5---8-|5-5-5-5-5-5-5-7-|
E|----------------|----------------|----------------|----------------|

Play next part till the end of the song (fade out).

  +   +   +   +    +   +   +   +    +   +   +   +    +   +   +   +  
G|------------5-5-|----------------|----------------|----------------|
D|----------------|7-7-7-7-7-7-----|------------5---|----------------|
A|8-8-8-8-8-8-----|------------8-8-|5-5-5-5-5-5---8-|5-5-5-5-5-5-5-7-|
E|----------------|----------------|----------------|----------------|

/  slide up
\  slide down
h  hammer-on
p  pull-off
~  let ring
Suggest correction
Creating personal tab
Creating personal tab
You can edit any tab online and save it as your Personal.

You can edit, replace or remove any tab part or add personal notes – all changes will be seen only by you.

Personal tabs can be accessed anytime from any device, even offline.
Learn more »
Give kudos to tab author, rate the tab!
1 2 3 4 5
comments
print report bad tab
guest
You may want to rate the tab now too:
select rating
Wanna post a correction for this tab? Suggest correction