Oops, an error
Loading. Please wait.

Win Some Lose Some Bass Tab

118 views 1 this week
no commentswrite comment
1 2 3 4 5
please rate
add to favorites
launch autoscroll
font size
0
reset
guitar tuner
Autoscroll
slow
fast
+/-
esc
set tempo
stop
Help us to improve Ultimate-Guitar.com Take our survey!
×
Author
Difficulty
Tuning
novice
D# G# C# F# A# D#
Artist: Robbie Williams
Song: Win Some Lose Some
Album: I've Been Expecting You (1998)
Bassist: Fil Eisler
Tuning: Standard


Intro and verse:

Gb|----------------------------------------------------------------| |
Db|----------------------------------------------------------------| |
Ab|7-7-7-7-7-7-7-7-7-7-7-7-7-7-7-7---------------------------------| |
Eb|--------------------------------5-5-5-5-5-5-5-5-5-5-5-5-5-5-5-5-| |
                                                                     | x3
Gb|----------------------------------------------------------------| |
Db|----------------------------------------------------------------| |
Ab|7-7-7-7-7-7-7-7-7-7-7-7-7-7-7-7-9-9-9-9-9-9-9-9-----------------| |
Eb|--------------------------------------------------5-5---5-5-5\--| |

Pre-chorus: (She touched my face...)

Gb|----------------------------------------------------------------|
Db|----------------------------------------------------------------|
Ab|7-7-7-7-7-7-7-7---------------------------------5-5-5-5-5-5-5-5-|
Eb|----------------7-7-7-7-7-7-7-7-5-5-5-5-5-5-5-5-----------------|

Gb|--------------------------------|
Db|--------------------------------|
Ab|--------------------------------|
Eb|7-7-7-7-7-7-7-7---5-5--5-5-5\---|

Chorus and Bridge: (Your cool suburban sun...)

Gb|----------------------------------------------------------------| |
Db|----------------------------------------------------------------| |
Ab|----------------------------------------------------------------| |
Eb|0-0-0-0-0-0-0-0-0-0-0-0-0-0-0-0-5-5-5-5-5-5-5-5-5-5-5-5-5-5-5-5-| |
                                                                     | x2
Gb|----------------------------------------------------------------| |
Db|----------------------------------------------------------------| |
Ab|----------------------------------------------------------------| |
Eb|0-0-0-0-0-0-0-0-0-0-0-0-0-0-0-0-2-2-2-2-2-2-2-2---5-5---5-5-5\--| |

Verse:

Gb|----------------------------------------------------------------|
Db|----------------------------------------------------------------|
Ab|7-7-7-7-7-7-7-7-7-7-7-7-7-7-7-7---------------------------------|
Eb|--------------------------------5-5-5-5-5-5-5-5-5-5-5-5-5-5-5-5-|

Gb|----------------------------------------------------------------|
Db|----------------------------------------------------------------|
Ab|7-7-7-7-7-7-7-7-7-7-7-7-7-7-7-7-9-9-9-9-9-9-9-9-----------------|
Eb|--------------------------------------------------5-5---5-5-5\--|

Chorus:

Gb|----------------------------------------------------------------|
Db|----------------------------------------------------------------|
Ab|----------------------------------------------------------------|
Eb|0-0-0-0-0-0-0-0-0-0-0-0-0-0-0-0-5-5-5-5-5-5-5-5-5-5-5-5-5-5-5-5-|

Gb|----------------------------------------------------------------|
Db|----------------------------------------------------------------|
Ab|----------------------------------------------------------------|
Eb|0-0-0-0-0-0-0-0-0-0-0-0-0-0-0-0-2-2-2-2-2-2-2-2---5-5---5-5-5\--|

(Dancing at discos...)

Gb|------------------------------------------------|
Db|9-9-9-9-9-9-9-9-9-9-----7-7-7-7-7-7-7-7-7-7-----|
Ab|--------------------9-9---------------------7-7-|
Eb|------------------------------------------------|

Gb|--------------------------------------------------|
Db|9-9-9-9-9-9-9-9-9-9---------------------------7-9-|
Ab|--------------------9\--3--3--5-5-5-5-5-5-7-9-----|
Eb|--------------------------------------------------|

Bridge:

Gb|----------------------------------------------------------------|
Db|----------------------------------------------------------------|
Ab|7-7-7-7-7-7-7-7-7-7-7-7-7-7-7-7---------------------------------|
Eb|--------------------------------5-5-5-5-5-5-5-5-5-5-5-5-5-5-5-5-|

Gb|----------------------------------------------------------------|
Db|----------------------------------------------------------------|
Ab|----------------------------------------------------------------|
Eb|0-0-0-0-0-0-0-0-0-0-0-0-0-0-0-0-2-2-2-2-2-2-2-2---5-5---5-5-5\--|

Pre-chorus:

Gb|----------------------------------------------------------------|
Db|----------------------------------------------------------------|
Ab|7-7-7-7-7-7-7-7-6-6-6-6-6-6-6-6-4-4-4-4-4-4-4-4-----------------|
Eb|------------------------------------------------5-5-5-5-5-5-5-5-|

Gb|--------------------------------|
Db|--------------------------------|
Ab|--------------------------------|
Eb|7-7-7-7-7-7-7-7---5-5-5-5-5-5-5-|

Chorus:

Gb|----------------------------------------------------------------|
Db|----------------------------------------------------------------|
Ab|----------------------------------------------------------------|
Eb|0-0-0-0-0-0-0-0-0-0-0-0-0-0-0-0-5-5-5-5-5-5-5-5-5-5-5-5-5-5-5-5-|

Gb|----------------------------------------------------------------|
Db|----------------------------------------------------------------|
Ab|----------------------------------------------------------------|
Eb|0-0-0-0-0-0-0-0-0-0-0-0-0-0-0-0-2-2-2-2-2-2-2-2---5-5---5-5-5\--|

Gb|----------------------------------------------------------------|
Db|----------------------------------------------------------------|
Ab|--------------------------------------------------4-0-5-0-6-0-7-|
Eb|0-0-0-0-0-0-0-0-0-0-0-0-0-0-0-0-5-5-5-5-5-5-5-5-----------------|

Gb|----------------------------------------------------------------|
Db|----------------------------------------------------------------|
Ab|----------------------------------------------------------------|
Eb|0-0-0-0-0-0-0-0-0-0-0-0-0-0-0-0-2-2-2-2-2-2-2-2---5-5---5-5-5\--|

Outro: (now it's gone...)

Gb|----------------------------------------------------------------|
Db|----------------------------------------------------------------|
Ab|----------------------------------------------------------------|
Eb|0-0-0-0-0-0-0-0-0-0-0-0-0-0-0-0-5-5-5-5-5-5-5-5-7-7-7-7-7-7-7-7-|

Gb|----------------------------------------------------------------|
Db|----------------------------------------------------------------|
Ab|----------------------------------------------------------------|
Eb|0-0-0-0-0-0-0-0-7-7-7-7-7-7-7-7-5-5-5-5-5-5-5-5-7-7-7-7-7-7-5-4-|

Gb|----------------------------------------------------------------|
Db|----------------------------------------------------------------|
Ab|7-7-7-7-7-7-7-7-6-6-6-6-6-6-6-6-4-4-4-4-4-4-4-4-----------------|
Eb|------------------------------------------------7-7-7-7-7-7-5-4-|

Gb|----------------------------------------------------------------|
Db|----------------------------------------------------------------|
Ab|----------------------------------------------------------------|
Eb|0-0-0-0-0-0-0-0-7-7-7-7-7-7-7-7-5-5-5-5-5-5-5-5---7-7~--7-7-7-7-|

Gb|----------------------------------------------------------------|
Db|----------------------------------------------------------------|
Ab|----------------------------------------------------------------|
Eb|0~--------------------------------------------------------------|

/  slide up
\  slide down
h  hammer-on
p  pull-off
~  let ring
Suggest correction
What's this?
You can suggest a correction to this tab. Community and Mods will review your correction and vote to approve or reject it.
comments
We did not receive enough feedback on this tab! Please rate:
print report bad tab
1 2 3 4 5
guest
You may want to rate the tab now too:
select rating
Please do not post tabs as comments. Select "correction" instead!