Oops, an error
Loading. Please wait.

Win Some Lose Some intro tab

1,047 views 3 this week
2 commentsread comments
1 2 3 4 5
1 last vote to show rating
add to favorites
×
Save as Personal and add changes to this tab that will be seen only by you. Learn more ›
×
You can save this tab as Personal to edit and correct it or add notes. All changes will be seen only by you. Learn more »
launch autoscroll
font size
0
reset
how to read this tab
guitar tuner
edit
Autoscroll
slow
fast
+/-
esc
set tempo
stop
Author
e|---------------------------3-4-3---------------------|
B|-----4-----6---6---4-6-4---------6-------------------|
G|---3---3-----3---------------------------------------|
D|-----------------------------------------------------|
A|-----------------------------------------------------|
E|-----------------^-----------------------------------|

Repeat about 3 times. On the 4th time only go up to the 6th note. Its played in the
middle of the song somewhere aswell.

There was no tab for the Intro so here it is.

            
            
Suggest correction
Creating personal tab
Creating personal tab
You can edit any tab online and save it as your Personal.

You can edit, replace or remove any tab part or add personal notes – all changes will be seen only by you.

Personal tabs can be accessed anytime from any device, even offline.
Learn more »
Give kudos to tab author, rate the tab!
1 2 3 4 5
comments
print report bad tab
2 comments total.
0 reply
tage_01 10 Mar 13, 2008 08:49 AM

sounds nothing like intro

0 reply
Cactusman07 10 Feb 09, 2009 02:00 AM

e|---------------------------3-------------------------|
B|-----4---6-----4-----4---6---6-4---------------------|
G|---3---3-----3-----3---3-----------------------------|
D|-----------------------------------------------------|
A|-----------------------------------------------------|
E|-----------------------------------------------------|

I think this is more correct..

guest
You may want to rate the tab now too:
select rating
Wanna post a correction for this tab? Suggest correction