Oops, an error
Loading. Please wait.

Hard On Me bass

91 views 3 this week
no commentswrite comment
1 2 3 4 5
2 more votes to show rating
add to favorites
×
Save as Personal and add changes to this tab that will be seen only by you. Learn more ›
×
You can save this tab as Personal to edit and correct it or add notes. All changes will be seen only by you. Learn more »
launch autoscroll
font size
0
reset
guitar tuner
edit
Autoscroll
slow
fast
+/-
esc
set tempo
stop
Author
Difficulty
Rhythm's a little tough to get down at some points

Main Riff:

G|----------------------------76--------------------|                     |-------|
D|---------------/9--7---7-------7------------------|                     |-------|
A|---------------------9----5-------97--------------| Sometimes ends with |-------|
E|--3-3--23--5-5-----------------------7--77--5752--|                     |--572--|

Verse 

G|------------------------76---------------------|
D|-----------/9--7---7-------7-------------------|
A|-----------------9---5-------97----------------|
E|--3-235--5-----------------------7--77--57523--|

Pre-Chorus 

G|----------------------76------------------|
D|--------------4-3--------7----------------|
A|-------------------5-------97--------5-4--|
E|--3-3--23--5------------------7--77-------|

Outro

G|-------------------------------|            
D|------------4-3----------------|            
A|-----------------55-------5-4--|  
E|--333--235-----------567-------|            

Octave Variatoin
G|-------------11--10----------------|
D|-----------------------------------|
A|------------9---8----55-------5-4--| I sometimes hear an octave variation around the F# to F notes
E|--333--235---------------567-------| Play around with it 

Main Riff 2x
Verse x2
Pre-Chorus x2
Main Riff x2
Break
Pre-Chorus x2
Main Riff x2
Break
Outro x2


Suggest correction
Creating personal tab
Creating personal tab
You can edit any tab online and save it as your Personal.

You can edit, replace or remove any tab part or add personal notes – all changes will be seen only by you.

Personal tabs can be accessed anytime from any device, even offline.
Learn more »
Give kudos to tab author, rate the tab!
1 2 3 4 5
comments
print report bad tab
guest
You may want to rate the tab now too:
select rating
Wanna post a correction for this tab? Suggest correction