Oops, an error
Loading. Please wait.

Hard On Me tab

816 views 1 this week
2 commentsread comments
1 2 3 4 5
x 3
add to favorites
×
Save as Personal and add changes to this tab that will be seen only by you. Learn more ›
×
You can save this tab as Personal to edit and correct it or add notes. All changes will be seen only by you. Learn more »
launch autoscroll
font size
0
reset
how to read this tab
guitar tuner
edit
Autoscroll
slow
fast
+/-
esc
set tempo
stop
http://robbyhunterband.com/
This tab plays the song in Drop D tuning.
Fun song to play, tricky rhythm but not impossible. I tried to use numbers for the 
repetitions but that may not be 100% exact.

E|---------------------------|
B|---------------------------|
G|-4--11-6--6--2--4-11---7-6-|
D|-5--12-7--7--4--5-12---9-7-| x2
A|---------------------------|
D|---------------------------|


E|------------|----------------|------------|----------------|
B|------------|----------------|------------|----------------|
G|------------|----------------|------------|----------------|
D|------------|----------------|------4--3--|----------------| x3
A|------5--4--|----------------|------------|----------0-1-2-|
D|------------|---5-5----5-6-7-|------------|---0-0----------|


E|---------------------------|
B|---------------------------|
G|-4--11-6--6--2--4-11---7-6-|
D|-5--12-7--7--4--5-12---9-7-| x4
A|---------------------------|
D|---------------------------|


E|------------|----------------|------------|----------------|
B|------------|----------------|------------|----------------|
G|------------|----------------|------------|----------------|
D|------------|----------------|------4--3--|----------------| x4
A|------5--4--|----------------|------------|----------0-1-2-|
D|------------|---5-5----5-6-7-|------------|---0-0----------|


E|---------------------------------|
B|---------------------------------|
G|-4---4--2-4---4---4---4--2-4---4-|
D|-5---5--4-5---5---5---5--4-5---5-|
A|---------------------------------|
D|---------------------------------|


Solo
E|------------------------------------------------------/17|
B|-15-14-7-10~--10-7-10/14/12~-15-15-14-12-14--/17--/19----|
G|---------------------------------------------------------|
D|---------------------------------------------------------|
A|---------------------------------------------------------|
D|---------------------------------------------------------|


E|---------------------------|
B|---------------------------|
G|-4--11-6--6--2--4-11---7-6-|
D|-5--12-7--7--4--5-12---9-7-| x2
A|---------------------------|
D|---------------------------|


E|------------|----------------|------------|----------------|
B|------------|----------------|------------|----------------|
G|------------|----------------|------------|----------------|
D|------------|----------------|------4--3--|----------------|
A|------5--4--|----------------|------------|----------0-1-2-| To the end
D|------------|---5-5----5-6-7-|------------|---0-0----------|
Suggest correction
Creating personal tab
Creating personal tab
You can edit any tab online and save it as your Personal.

You can edit, replace or remove any tab part or add personal notes – all changes will be seen only by you.

Personal tabs can be accessed anytime from any device, even offline.
Learn more »
Give kudos to tab author, rate the tab!
1 2 3 4 5
comments
print report bad tab
2 comments total.
0 reply
mark-spencer 10 May 11, 2015 10:54 AM

Hey Robby Hunter trio, thanks for posting the tab; this is a fantastic and favorite song of mine! I really appreciate it! Could you all post anymore tabs of some of your songs? You have some killer, groovy guitar in your songs and I'd love to see the tabs to play em! Book I Never Read or Corazon would be fantastic to have tabs of! Thanks again for posting this tab and putting out all your great jams, hope to hear more from you guys soon!

guest
You may want to rate the tab now too:
select rating
Wanna post a correction for this tab? Suggest correction