Oops, an error
Loading. Please wait.

Right Next Door bass

version 1
version 1

Whole song

5,640 views 3 this week
1 commentread comment
1 2 3 4 5
2 more votes to show rating
add to favorites
×
Save as Personal and add changes to this tab that will be seen only by you. Learn more ›
×
You can save this tab as Personal to edit and correct it or add notes. All changes will be seen only by you. Learn more »
launch autoscroll
font size
0
reset
guitar tuner
backing track
0:00
0:00
edit
Autoscroll
slow
fast
+/-
esc
set tempo
stop
Difficulty
Title: Right Next Door (Because of Me)
Artist: Robert Cray
Album: Strong Persuader
Author: Anonymous

MM = 88 bpm
Triplet feel

Passing notes are not shown -- just about anything in the Cm scale
sounds good.


Intro riff

   Cm                                                       (repeat 2 x 1)
G|----------------------------------|-------------------------------------||
D|----------------------------------|------------------------------------*||
A|-3-----3-------3--5--6----3-------|-3-----3-------3--5--6----6--3------*||
E|----3------6------------------(3)-|----3------6---------------------(3)-||


Verse 1,2

  Cm                           Eb                         
G|---------------------------|---------------------------|
D|---------------------------|---------------------------|
A|-3---3--------3---3--------|-6---6--------6---6--------|
E|---------------------------|---------------------------|

   F            Eb             Cm          (repeat 4 x 1)  
G|---------------------------|---------------------------||
D|-3---3---------------------|--------------------------*||
A|--------------6---6--------|-3---3--------3---3-------*||
E|---------------------------|---------------------------||

   Bb                          Cm                       
G|---------------------------|---------------------------|
D|---------------------------|---------------------------|
A|---------------------------|-3---3--------3---3--------|
E|-6---6--------6---6--------|---------------------------|


  ---------------------------------------------2nd verse-+
   Bb                          Cm                        |
G|---------------------------|---------------------------|
D|---------------------------|---------------------------|
A|---------------------------|-3---3--------3---3--------|
E|-6---6--------6---6--------|---------------------------|


Chorus
                              -----------------------------------1,3-+
   Ab           Bb             Cm          fill every other time     |
G|---------------------------|---------------------------------------|
D|---------------------------|--------------------1-----------1------|
A|---------------------------|-3---3--------1--3-----3--1--3---------|
E|-4---4--------6---6--------|---------------------------------------|
                              Or play fill on A/E strings with stretch

  ------------------------2,4-+
   Cm                         |
G|---------------------------||  (repeat 2 x 4:
D|--------------------------*||   repeat two measures four times
A|-3---3--------3---3-------*||   using alternate endings)
E|---------------------------||


Bridge

   Eb       Cm      Bb     Ab      G
G|--------|--------|-------------|--------|
D|--------|--------|-------------|--------|
A|-6------|-3------|-------------|--------|
E|--------|--------|-6-----4-----|-3------|

Chorus (Guitar Solo)
Intro Riff x 2
Verse 3 (use 2nd ending)
Chorus (Guitar Solo)
Intro Riff, fade out


            
            
Suggest correction
Creating personal tab
Creating personal tab
You can edit any tab online and save it as your Personal.

You can edit, replace or remove any tab part or add personal notes – all changes will be seen only by you.

Personal tabs can be accessed anytime from any device, even offline.
Learn more »
Give kudos to tab author, rate the tab!
1 2 3 4 5
comments
print report bad tab
1 comment total.
0 reply
Bruno Frenchy 4,665 Oct 04, 2015 01:04 AM

Nice job... I am a great fan of Robert Cray and enjoy playing the bass line of Richard Cousins... I also wrote a few tabs... Awesome tab here... Thanks... Bruno Frenchy

guest
Wanna post a correction for this tab? Suggest correction