Oops, an error
Loading. Please wait.

Time Makes Two solo tab

version 1
version 1

Solo

Whole song

9,907 views 6 this week
3 commentsread comments
1 2 3 4 5
x 5
add to favorites
×
Save as Personal and add changes to this tab that will be seen only by you. Learn more ›
×
You can save this tab as Personal to edit and correct it or add notes. All changes will be seen only by you. Learn more »
launch autoscroll
font size
0
reset
how to read this tab
guitar tuner
edit
Autoscroll
slow
fast
+/-
esc
set tempo
stop
Author
-------------------------------------------------------------------------------
                               Robert Cray
                             TIME MAKES TWO
-------------------------------------------------------------------------------

Tabbed by: Blues123
Email: Blues123@carolina.rr.com

Tuning: E-A-D-G-B-E

Here is the intro and solo for Time Makes Two. Have fun and play on!


INTRO

e|----6h8p6--------4--4h6h4--------2h4--2--4--------------------------------||
B|-----------6-----4---------4-----2----2--4--------------------------------||
G|--------------6--5------------5--3----3--2--------------------------------||
D|-8---------------6---------------4----4--3--------------------------------||
A|--------------------------------------------------------------------------||
E|--------------------------------------------------------------------------||

SOLO

e|-12b--12b--11------11-------------|------------------------------------------|
B|---------------14------11--11--11-|------------------------------------------|
G|----------------------------------|---------13h15--15--13------13------------|
D|----------------------------------|-----15-----------------15------15p13-----|
A|----------------------------------|-13------------------------------------16-|
E|----------------------------------|------------------------------------------|

e|-----------------------|-/11p9----------------|-------------------------------|
B|-14-----------------14-|--------11p9----------|-----------9--6h9-----6--------|
G|-----15--15--13h15-----|--------------10p8----|-------10----------8-----/8--6-|
D|-----------------------|--------------------8-|-8h11--------------------------|
A|-----------------------|----------------------|-------------------------------|
E|-----------------------|----------------------|-------------------------------|

e|-------------------------|-----------------------------------------------6-|
B|-------------------------|-----------------------------6--9--6-------------|
G|-------6--8-----8brbr--6-|----------6-----8brbrp6--8b-----------8--6-------|
D|--6h8--------8-----------|----6--8-----8------------------------------8----|
A|-------------------------|-8-----------------------------------------------|
E|-------------------------|-------------------------------------------------|

e|------6----------------6-|------------------------------------------------------------18-|
B|-------------------------|---------16--16/18--18/21--21\18--21p18--16----------16/18-----|
G|-/10-----/10p8-----------|-15--18--------------------------------------18--15------------|
D|----------------11--8----|---------------------------------------------------------------|
A|-------------------------|---------------------------------------------------------------|
E|-------------------------|---------------------------------------------------------------|

e|----------------------------|--------------------------------|
B|------------/16--/18--16\14-|-----14--16--16b--16p14------14-|
G|-----13h15------------------|-15-----------------------------|
D|-15-------------------------|-------------------------15-----|
A|----------------------------|--------------------------------|
E|----------------------------|--------------------------------|

e|-------------------------------|------------------------------------------|
B|-14p13------13-----------------|-----------------13b----------------------|
G|--------15------15p13----------|-13------13--15-------15p13---------------|
D|-----------------------15--/15-|-----15----------------------15p13--------|
A|-------------------------------|------------------------------------16p13-|
E|-------------------------------|------------------------------------------|

e|----------------------------------|-------------------|
B|----------------------------------|-------------------| 
G|----------------------------------|-13--15------------|
D|---------------------13h15--13h15-|---------15\13--11-|
A|----------13--16p13---------------|-------------------|
E|-/13--16--------------------------|-------------------|

e|-------------|-----------------||
B|-------------|--9--7-----------||
G|-------------|-10--8-----------||
D|-13------11\-|--8--7-----------||
A|-----13------|-----------------||
E|-------------|-----------------||



Tablature Key
-------------

 h   - hammer-on
 p   - pull-off
 b   - bend
 r   - bend release
 /   - slide up
 \   - slide down


            
            
Suggest correction
Creating personal tab
Creating personal tab
You can edit any tab online and save it as your Personal.

You can edit, replace or remove any tab part or add personal notes – all changes will be seen only by you.

Personal tabs can be accessed anytime from any device, even offline.
Learn more »
comments
print report bad tab
3 comments total.
0 reply
BluesLP1990 77 Dec 11, 2007 05:12 PM

First off i haven't played this solo the way you've tabbed it since i already know most of it. The way you have it
tabbed is pretty strange structure-wise, thought the notes are right for the most part

i will say that you have the
two closing chords wrong. They should be F7#9 and F7b9(

0 reply
BluesLP1990 77 Dec 11, 2007 05:15 PM

e|-----
B|-9-7-
G|-8-8-
D|-7-7-
A|-8-8-
E|-----

0 reply
BluesLP1990 77 Dec 11, 2007 05:16 PM

...for the chord diagrams click the corrections page

guest
You may want to rate the tab now too:
select rating
Wanna post a correction for this tab? Suggest correction