Oops, an error
Loading. Please wait.

Time Makes Two tab

version 1
version 1

Whole song

24,196 views 27 this week
6 commentsread comments
1 2 3 4 5
x 11
add to favorites
×
Save as Personal and add changes to this tab that will be seen only by you. Learn more ›
×
You can save this tab as Personal to edit and correct it or add notes. All changes will be seen only by you. Learn more »
launch autoscroll
font size
0
reset
how to read this tab
guitar tuner
edit
Autoscroll
slow
fast
+/-
esc
set tempo
stop
Author
Difficulty
-------------------------------------------------------------------------------
                             TIME MAKES TWO - Robert Cray
-------------------------------------------------------------------------------
Tabbed by: David Bierhaus
Email: dbierhaus01@yahoo.com

Tuning: Standard E-B-G-D-A-E

Note: I did not tab the solo, and I did not tab out the rhythm. If you listen to
and play along with the song, the rhythm is really easy to get the hang of. This
song does involve some long stretches of the hand.


  Fig. 1
e|----6h8p6--------4--4h6h4--------2/4--2--2/4-------------------------------|
B|-----------6-----4---------4-----2/4--2--2/4-------------------------------|
G|--------------6--5------------5--------------------------------------------|
D|-8-------------------------------------------------------------------------|
A|---------------------------------------------------------------------------|
E|---------------------------------------------------------------------------|
  Fig. 2
e|----6-----6-----6-----6-----6-----6-----6-----6-----6-----6-----6-----6----|
B|----6--6--6-----6-----6-----6--6--6-----6-----6-----6-----6-----6-----6----|
G|---------------------------------------------------------------------------|
D|---------------------------------------------------------------------------|
A|-------------------------------------------------6-----4-----3-----3-------|
E|-6-----------6-----4-----2-----------2-----1-----------------------------1-|
  Fig. 3
e|------------1----1----1----------------------------------------------------|
B|---------1--4----2h4--1----------------------------------------------------|
G|----2/3--------------------------------------------------------------------|
D|-3-------------------------------------------------------------------------|
A|---------------------------------------------------------------------------|
E|---------------------------------------------------------------------------|
  Fig. 4
e|----6-----6-----6-----6-----6-----6-----6-----6-----6-----6-----6-----6--4-|
B|----6--6--6-----6-----6-----6--6--6-----6-----6-----6-----6-----6-----6--4-|
G|---------------------------------------------------------------------------|
D|---------------------------------------------------------------------------|
A|-------------------------------------------------6-----4-----3-----3-------|
E|-6-----------6-----4-----2-----------2-----1-------------------------------|

After Fig. 4, Repeat Fig. 1 one time. Then comes the solo. After the solo,
continue on to Fig. 5

  Fig. 5
e|----6-----6-----6-----6-----6-----6-----6-----6----------------------------|
B|----6--6--6-----6-----6-----6--6--6-----6-----6----------------------------|
G|---------------------------------------------------------------------------|
D|---------------------------------------------------------------------------|
A|---------------------------------------------------------------------------|
E|-6-----------6-----4-----2-----------2-----4-------------------------------|

e|----6h8p6--------4--4h6p4--------2/4--2---2--------------------------------|
B|-----------6-----4---------4-----2/4--2------------------------------------|
G|--------------6--5------------5--------------------------------------------|
D|-8-------------------------------------------------------------------------|
A|---------------------------------------------------------------------------|
E|---------------------------------------------------------------------------|

e|----6h8p6--------4--4h6p4--------2/4--2---2-2------------------------------|
B|-----------6-----4---------4-----2/4--2------------------------------------|
G|--------------6--5------------5--------------------------------------------|
D|---------------------------------------------------------------------------|
A|-8-------------------------------------------------------------------------|
E|---------------------------------------------------------------------------|
  Fig. 6
e|----6-6-6-----6-6-6-----6-6-6-----6-6-6-----6-6-6-----6-6-6----------------|
B|----6-6-6-----6-6-6-----6-6-6-----6-6-6-----6-6-6-----6-6-6----------------|
G|---------------------------------------------------------------------------|
D|---------------------------------------------------------------------------|
A|-----------------------------------------6---------4-----------------------|
E|-6---------4---------2---------1-------------------------------------------|

e|----6-6-6-----4-4-4--------------------------------------------------------|
B|----6-6-6-----4-4-4--------------------------------------------------------|
G|---------------------------------------------------------------------------|
D|---------------------------------------------------------------------------|
A|-3---------3---------------------------------------------------------------|
E|---------------------------------------------------------------------------|

Repeat Fig. 6 for the remainder of the song, and that's it!


| /  slide up
| \  slide down
| h  hammer-on
| p  pull-off
| ~  vibrato
| +  harmonic
| x  Mute note
===============================================================================

            
            
Suggest correction
Creating personal tab
Creating personal tab
You can edit any tab online and save it as your Personal.

You can edit, replace or remove any tab part or add personal notes – all changes will be seen only by you.

Personal tabs can be accessed anytime from any device, even offline.
Learn more »
comments
print report bad tab
6 comments total. Showing first comments.
0 reply
dale007 10 Apr 05, 2006 11:02 AM

wicked song mon

0 reply
acoustic87 80 Apr 24, 2006 08:49 PM

I am glad someone tabbed this song but I wish they had also done the solo. Nonetheless this Tab is correct. Good Job

0 reply
sdo 31 Sep 29, 2006 11:41 AM

for the correct beginning (in my opinion) see version 2.

guest
You may want to rate the tab now too:
select rating
Wanna post a correction for this tab? Suggest correction