Oops, an error
Loading. Please wait.

Feelin Good Again solo tab

337 views 12 this week
no commentswrite comment
1 2 3 4 5
3 more votes to show rating
add to favorites
×
Save as Personal and add changes to this tab that will be seen only by you. Learn more ›
×
You can save this tab as Personal to edit and correct it or add notes. All changes will be seen only by you. Learn more »
launch autoscroll
font size
0
reset
how to read this tab
guitar tuner
edit
Autoscroll
slow
fast
+/-
esc
set tempo
stop
The second half of the solo is on a lap steel guitar. The last three notes are from what I can hear for guitar
minus the finger picking. It also sounds like there's another step between the 19 and 20 of the last two
notes, but I think that's a change in the chords that are being picked.

There are fret variations on how to play the solo, but this is how I play it to try to keep on the top three
strings as much as possible to get that "lap steel" sound.

[Guitar]
                     t           t   t  t     t           t   t   t   t
e|-------------19----22----|-----19--17--------------|-------------------------|
B|----19-20-22-------------|------------20---/17-----|----19--17--15-----------|
G|-21----------------------|-------------------------|----------------14-------|
D|-------------------------|-------------------------|-------------------------|
A|-------------------------|-------------------------|-------------------------|
E|-------------------------|-------------------------|-------------------------|

[Lap Steel]
e|-------------------------|-------------------------|-------------------------|
B|-20~\-------\15~--20~----|-19~\---------\15~-------|-/17~--------------------|
G|-------------------------|-------------------------|-------------------------|
D|-------------------------|-------------------------|-------------------------|
A|-------------------------|-------------------------|-------------------------|
E|-------------------------|-------------------------|-------------------------|

e|-------------------------|-------------------------|
B|-/19~--------------------|-/20~--------------------|
G|-------------------------|-------------------------|
D|-------------------------|-------------------------|
A|-------------------------|-------------------------|
E|-------------------------|-------------------------|

************************************

| t  Tremolo
| /  Slide up
| \  Slide down
| ~  Vibrato

************************************
Suggest correction
Creating personal tab
Creating personal tab
You can edit any tab online and save it as your Personal.

You can edit, replace or remove any tab part or add personal notes – all changes will be seen only by you.

Personal tabs can be accessed anytime from any device, even offline.
Learn more »
Give kudos to tab author, rate the tab!
1 2 3 4 5
comments
print report bad tab
guest
You may want to rate the tab now too:
select rating
Wanna post a correction for this tab? Suggest correction