Oops, an error
Loading. Please wait.

The Way I Walk Chords

2,464 views 6 this week
no commentswrite comment
1 2 3 4 5
please rate
add to favorites
launch autoscroll
font size
0
reset
transpose
0
reset
- display chords -
guitar tuner
Tab Pro tools
  • play this tab
  • loop segment
  • change instrument
  • show fretboard
  • metronome
Autoscroll
slow
fast
+/-
esc
set tempo
stop
Contributor
Late 70's blues rock tune; great voice by Robert. The times shown are elapsed time 
from the start; tabbed by Marty Lurvey
http://www.robertgordonmusic.com/

Verse 1
    E                                 A
The way I walk is just the way I walk.
E                                     A
The way I talk is just the way I talk.
A                                       
The way I smile is just the way I smile.
E ]                    A
Touch me baby and I'll go hog wild.     0:16


Verse 2
    E                                 A
The way I love is just the way I love.
E                                  A
C'mon and be my little turtle dove.
A                                
Touch me baby, it feels so good.
E ]
I feel as though I wanna,
       A
Then I don't know if I should.    0:31


Bridge
E                                    A
Dyoo-wee-oo-wee-oo-wee-oo-wee-oo-wah,
E                                    A
Dyoo-wee-oo-wee-oo-wee-oo-wee-oo-wah, (yip-yip-yip)
A                                    
Dyoo-wee-oo-wee-oo-wee-oo-wee-oo-wah, (uh huh huh)
E                                    
Dyoo-wee-oo-wee-oo-wee-oo-wee-oo-wah,
 B        A              E
(ahhhhh   ahhhhh  uh huh huh)      0:52


Lead guitar solo & blues break
    E         A         E         B                A                 E
e |-------------------------------------------------------------------------------|
B |-------------------------------------------------------------------------------|
G |-----------/==x4==/------------------------------------------------------------|
D |-/==x8==/------------/==x4==/-------------------------------------/==x4==/-----|
A |-----------0-0-4s7-------------2-2-2-2-2-2-2-2--0-0-0-0-0-0-0-0----------------|
E |-0-0-4s7-------------0-0-4s7--------------------------------------0-0-4s7------|
                                                                              1:19

Verse 3
    E                                    A
The way you love me got to suit my style,
E                                 A
Or little baby I will say goodbye.
A                           
Love me baby, love me right,
E ]              A
Love me morning, noon and night.   1:33




Bridge
E                                    A
Dyoo-wee-oo-wee-oo-wee-oo-wee-oo-wah,
E                                    A
Dyoo-wee-oo-wee-oo-wee-oo-wee-oo-wah, (yip-yip-yip)
A                                    
Dyoo-wee-oo-wee-oo-wee-oo-wee-oo-wah, (uh huh huh)
E                                    
Dyoo-wee-oo-wee-oo-wee-oo-wee-oo-wah,
 B        A              E
(ahhhhh   ahhhhh  uh huh huh)      1:53


Lead guitar solo & blues break             
    E         A         E         B                A                 E
e |-------------------------------------------------------------------------------|
B |-------------------------------------------------------------------------------|
G |-----------/==x4==/------------------------------------------------------------|
D |-/==x8==/------------/==x4==/-------------------------------------/==x4==/-----|
A |-----------0-0-4s7-------------2-2-2-2-2-2-2-2--0-0-0-0-0-0-0-0----------------|
E |-0-0-4s7-------------0-0-4s7--------------------------------------0-0-4s7------|
           Yeah!                                                              2:18


Bridge
E                                    A
Dyoo-wee-oo-wee-oo-wee-oo-wee-oo-wah,
E                                    A
Dyoo-wee-oo-wee-oo-wee-oo-wee-oo-wah, (yip-yip-yip)
A                                    
Dyoo-wee-oo-wee-oo-wee-oo-wee-oo-wah, (uh huh huh)
E                                    
Dyoo-wee-oo-wee-oo-wee-oo-wee-oo-wah,
 B        A              E       E ]
(ahhhhh   ahhhhh  uh huh huh)         2:49
comments
We did not receive enough feedback on this tab! Please rate:
print report bad tab
1 2 3 4 5
I want to post or [tab]
guest
You may want to rate the tab now too:
select rating
Please do not post tabs as comments. Select "correction" instead!