Oops, an error
Loading. Please wait.

Kind Hearted Woman Blues tab

version 1
version 1

Whole song

Interactive

59,417 views 78 this week
2 commentsread comments
1 2 3 4 5
x 11
add to favorites
×
Save as Personal and add changes to this tab that will be seen only by you. Learn more ›
×
You can save this tab as Personal to edit and correct it or add notes. All changes will be seen only by you. Learn more »
launch autoscroll
font size
0
reset
how to read this tab
guitar tuner
edit
Autoscroll
slow
fast
+/-
esc
set tempo
stop
Author
KIND HEARTED WOMAN BLUES
                          As recorded by Robert Johnson

Transcribed by Paul Bell

Gtr I (E A D G B E) - 'Gtr. 1'

  Q=100(8=s8)
  A7      Ab7   G7
 6/4                         4/4
  Gtr I
                  |-3-|           |-3-| |-3-| |-3-|       |-3-|
  E E E E E E E E E E E E E   E E E E E E E E E E E   E E E E E E E Q
e|-9-9-9-9-8-8-8-7-7---7-7---|---5-5-5-5-5-5-5---5-5-|-5-0-0---0-0-0----|
B|-8-8-8-8-7-7-7-6---6---6---|-----5-----------------|-------3----------|
G|-9-9-9---8-----7---------2-|-----------------------|------------------|
D|---------------------------|-----5-----4-----3-----|-2---0-----0---0--|
A|-0-------0---0---0---------|-0---------------------|-----2-----2---2--|
E|---------------------------|-----------------------|-----0-----0---0--|


  A7                  A°                      A7        A°
      |-3-|               |-3-| |-3-|             |-3-| |-3-| |-3-|
  E E E E E E E E E   E E E E E E E E E S S   E E E E E E E E E E E
e|---0---------0-0---|-5-5-------------------|---0---------5-0-----0-|
B|---5-------------4-|-------------------4-5-|---5---------------4---|
G|-6---6---6-6---6---|-5---5---5-5---5-5-----|-6---------------------|
D|-5---5---5-5---5---|-4---4---4-4---4-4-----|-5---5---5-4---4-4---4-|
A|-0---0---0-0---0---|-0---0---0-0---0-0-----|-0---0---0-0---0-0---0-|
E|-------------------|-----------------------|-----------------------|


  A7                   D7
      |-3-| |-3-|          |-3-|              |-3-|
  E E E E E E E E Q    E E E E E E E Q    E E E E E E E Q
e|-0-0----------------|------------------|------------------|
B|--------------------|-1-1-1-----1-1----|-1-1-1-----1-1----|
G|-6---6---6-6---6----|-2-2-2-2---2-2----|-2-2-2-2---2-2----|
D|-5---5---5-5---5-5--|-0---0---0-0---0--|-0---0---0-0---0--|
A|-0---0---0-0---0-0--|-0---0---0-0---0--|-0---0---0-0---0--|
E|--------------------|-2---2---2-2---2--|-2---2---2-2---2--|


  A7        Ab7                       A         E7
  |-3-| |-3-| |-3-| |-3-|   |-3-|                   |-3-|
  E E E E E E E E E E E E   E E E E E E E E E   E E E E E E E Q
e|-9---9-9---8-8---8-8-----|-7-7-7-7---5-5-----|-----0---0-0-0----|
B|-8---8-8---7-7---7-7-----|-6-6-6-6---2-------|---3---3----------|
G|-9---------------------7-|---------2---------|------------------|
D|-------------------------|-------------------|-0---0---0-0---0--|
A|-0-----0-----0-----0-----|-0-----0---0---0---|-2---2---2-2---2--|
E|-------------------------|-----------------0-|-0---0---0-0---0--|


  D7
                        |-3-| |-3-| |-3-|       |-3-|
  E E E E E E E E   E E E E E E E E E E E   E E E E E E E Q
e|-----------------|---5-5-5-5-5-5-5---5-5-|-5-0-0---0-0-0----|
B|---1-1---1-1-----|-----5-----------------|-------3----------|
G|-------2-----0-2-|-----------------------|------------------|
D|-0---0---0-------|-----5-----4-----3-----|-2---0-----0---0--|
A|-0---0---0---0---|-0---------------------|-----2-----2---2--|
E|-2---2---2-------|-----------------------|-----0-----0---0--|


           |-3-| |-3-|      |-3--|         |-3-|      |-3-| |-3-| |-3-|
  T E. +T  E E E E E E Q    E  E E E E     E E E Q    E E E E E E E E E Q
e|-8s9--(9)----------------|--------7-5-----5--------|-9-9-9-9-9-9-9-9-9-9---|
B|-7s8--(8)----------------|-8-10-8-6----------------|-8-8-8-8-8-8-8-8-8-8---|
G|-8s9--(9)----------------|-9------7-5b6.5----------|-9-9-9-9-9-9-9-9-9-9---|
D|--------------7-7---7-7--|--------------------5----|-----------------------|
A|---0--(0)-0---0-0---0-0--|-0--------------0---0-0--|-----------------------|
E|-------------------------|-------------------------|-----------------------|


  |-3--| |-3-|                                    |-3-| |-3-|
  E  E E E E E E     E Q    E E E     E E E E E   E E E E E E E E E E
e|--------7h8-7-5-----5----|---------------------|-------------------0-|
B|-8-10-8------------------|-1-1-1b2.5-----------|---1---1---1-------5-|
G|-9------7-----5b6.5------|-----------2-2-2-----|---------2---2-2-2-6-|
D|----------------------7--|---------------------|---------------------|
A|----------------------0--|-0---0-------0---0---|-0---0---------------|
E|-------------------------|-2---2-------2---2-1-|-2---2---------------|


 5/4
  |-3-| |-3-| |-3-|     |-3-|
  E E E E E E E E E E E E E E
e|-----------------0-0-0-------|
B|---------------4---4-5-------|
G|---------------------6-------|
D|-5---5-5---5-4-----4---5-----|
A|-0---0-0---0-0---0-0---0---2-|
E|---------------------------0-|


                               4/4
  |-3-| |-3-|     |-3-| |-3-|
  E E E E E E E E E E E E E E   E E E E     E E E E
e|-----------0---0-------------|----------------------|
B|---------3-----3-------------|---1-1-1b2.5----------|
G|---------------1-------------|-------------2-2-0-2--|
D|-0---0-0---0-0---0---0-0---0-|----------------------|
A|-2---2-2---2-2---2---2-2---2-|-0---0-------0---0----|
E|-0---0-0---0-0---0---0-0---0-|-2---2-------2-----0--|


      |-3-| |-3-| |-3-|
  E E E E E E E E E E E   Q  Q  H
e|---5-5-5-5-5-5-5---5-5-|-5-----3----*|
B|-----5-----------------|-------2----*|
G|-----------------------|-------2----*|
D|-----5-----4-----3-----|-2-----2----*|
A|-0---------------------|----0--0----*|
E|-----------------------|------------*|



************************************

| (n)  Ghost note
| b    Bend
| h    Hammer-on

************************************
Suggest correction
Creating personal tab
Creating personal tab
You can edit any tab online and save it as your Personal.

You can edit, replace or remove any tab part or add personal notes – all changes will be seen only by you.

Personal tabs can be accessed anytime from any device, even offline.
Learn more »
comments
print report bad tab
2 comments total.
-2 reply
Glorified 20 Jul 29, 2007 11:33 PM

this tab doesnt match either recording

0 reply
oiiopo 216 Nov 22, 2009 12:12 AM

I believe the master recording has been capo 2'd.

guest
You may want to rate the tab now too:
select rating
Wanna post a correction for this tab? Suggest correction