Oops, an error
Loading. Please wait.

Walking Blues Tab

version 1
version 1

Whole song

59,297 views 54 this week
no commentswrite comment
1 2 3 4 5
x 8
add to favorites
launch autoscroll
font size
0
reset
how to read this tab
guitar tuner
×
Best way to learn
"Walking Blues"
Autoscroll
slow
fast
+/-
esc
set tempo
stop
A                                            A/G A/F# A/F
E |--/12-12-12-/12-12-12-/12-12-12-/12-------|--------------------|
C#|-/12-12-12-/12-12-12-/12-12-12-/12------ -|----0---------------|
A |------------------------------------11-12-|-12---0-0-0-0-0-0-0-|
E |------------------------------------------|-12---3-3-2-2-1-1-1-|
A |------------------------------------------|----0---------------|
E |------------------------------------------|------3---2---1-----|

   A
                 I woke up this morning, feel round for my shoes
E |----------------0-----|---------------|---------------|
C#|----------------0-----|---------------|---------------|
A |--0-------------------|--0-----0------|--0------------|
E |--0-----0---0---------|--0-0-0-0------|--0-0-0-0------|
A |----2/4---6/7-----2/4-|----0-0-0-2/4--|--0-0-0-0-2/4--|
E |--0-----------0-------|---------------|---------------|

                                                  N.C.
   Know bout got these,     old walkin blues. Woke up this mornin
E |-----------------------|-----5--5--5-5----------|-----------------|
C#|----------0------------|--0---------------------|-----------------|
A |-----------------------|--0---------------------|-----------------|
E |--0---0---0---0--------|-------------0--0-------|-----------------|
A |--0---0---0---0---2/4--|--------0----0--0--3/5--|-3/5-3/5-3/5-3/5-|
E |-----------------------|------------------------|-----------------|

     feelin round for my shoes
E |------------------------|
C#|------------------------|
A |------------------------|
E |------------------------|
A |--3/5----3/5----5----0--|
E |------------------------|

   A
                                     But you know bout at I
E |----------5---5-------|----------5---5-------|---------------------|
C#|----------------------|----------------------|---------------------|
A |------------0-------0-|----------------------|-----0---------0-----|
E |--0-----0---0---0---0-|--0-----0---0---0-----|-3/5-0-3/5-3/5-0-5/7-|
A |--0-2/4-----0---0-----|--0-2/4-----0---0-3/5-|---------------------|
E |--0---------------2---|-0--------------------|---------------------|

E |----------------|---------5---5-------|---------5---------|
C#|----------------|---------------------|-------------------|
A |------0---------|-----------0-------0-|-------------------|
E |------0-------0-|-0-----0---0---0---0-|-0-----0---0-0-----|
A |--5/7-0-3/5-5-0-|-0-2/4-----0---0-----|-0-2/4-----0-0-2/4-|
E |--------------2-|-0---------------2---|-------------------|

[Outro]
E |---/12-12-12-/12-/12-------------|--------5-5-|
C#|---/12-12-12-/12-/12-------------|----3-3-----|
A |---------------------12--12\-3/4-|-/4---------|
E |---------------------------------|----------0-|
A |---------------------------------|------------|
E |---------------------------------|------------|



************************************

| /  Slide up
| \  Slide down
|    
| #  

************************************
Suggest correction
comments
print report bad tab
guest
You may want to rate the tab now too:
select rating
Wanna post a correction for this tab? Suggest correction