Oops, an error
Loading. Please wait.

Addicted To Love bass

version 1
version 1

Whole song

  • The version I use with my band plain live (gigs) -... Show more

Interactive

29,735 views 54 this week
4 commentsread comments
1 2 3 4 5
x 12
add to favorites
×
Save as Personal and add changes to this tab that will be seen only by you. Learn more ›
×
You can save this tab as Personal to edit and correct it or add notes. All changes will be seen only by you. Learn more »
launch autoscroll
font size
0
reset
guitar tuner
backing track
0:00
0:00
edit
Autoscroll
slow
fast
+/-
esc
set tempo
stop
Song: Addicted To Love
Artist: Robert Palmer
Tabbed by: cianormo + my brother


[Main Riff]
G|----------------------------------------------------------------|
D|----------------------------------------------------------------|
A|---5---3-----------5---3-----------3---2-----------3---2--------|
E|-5---5---5-3-5---5---5---5-3-5---3---3---3-1-3---3---3---3-1-3--|

G|----------------------------------------------------------------|
D|----------------------------------------------------------------|
A|---5---3---3-5-----5---3---3-5-----5---3-----------5---3--------|
E|-5---5---5-------5---5---5-------5---5---5-3-5---5---5---5-3-5--|

Last time play  E|-5-3-2-  (2 = first note of break)

[Break]
G|----------------------------------------------------------------|
D|------------------------------------------7-7-7---------7-7-7---|
A|-----------------5-----5--5-----------5-------------5-----------|
E|----2-----2--2------------------5---5---5---------5---5---------|

G|----------------------------------------------------------------|
D|----------------------------------------------------------------|
A|-----------------5-----5--5-----5/12~~~-----------9\------------|
E|----2-----2--2--------------------------------------------------|

Song Structure:
Main Riff x4 (00:19)
Break x1
Main Riff x2
Break x1
Main Riff x3
Break x1
Main Riff till the end and fade out.

            
            
Suggest correction
Creating personal tab
Creating personal tab
You can edit any tab online and save it as your Personal.

You can edit, replace or remove any tab part or add personal notes – all changes will be seen only by you.

Personal tabs can be accessed anytime from any device, even offline.
Learn more »
comments
print report bad tab
4 comments total. Showing first comments.
+3 reply
cianormo 394 Jul 12, 2008 11:41 PM

Well mr big-mouth, I'm well ****ing aware of it. But some of us have lives and are too busy to correct something like thins. If yours is so great, then why do we have to e-mail you? Why isn't it already online? My point exactly.

0 reply
talldeafman 10 Aug 03, 2017 12:26 AM

"play this bit just before the break right here"......on what string?

guest
You may want to rate the tab now too:
select rating
Wanna post a correction for this tab? Suggest correction