Oops, an error
Loading. Please wait.

Hurting Kind tab

196 views 12 this week
no commentswrite comment
1 2 3 4 5
1 last vote to show rating
add to favorites
×
Save as Personal and add changes to this tab that will be seen only by you. Learn more ›
×
You can save this tab as Personal to edit and correct it or add notes. All changes will be seen only by you. Learn more »
launch autoscroll
font size
0
reset
how to read this tab
guitar tuner
edit
Autoscroll
slow
fast
+/-
esc
set tempo
stop
Author
Difficulty
About this tab version
Full tab, guitar parts from beginning to end. Was this info helpful? Yes No
Artist/Song: Robert Plant  
Album:       Manic Nirvana
Tuning:      Standard
Tabbed by:   jjhand

This song uses vocal breaks where the guitar rests, then plays off the vocal lines.
Please rate or comment.

[Intro]
   Use phaser 
e|--------------------------|---------------------------|---------------|
B|--------------------------|---------------------------|---------------|
G|--------------------------|---------------------------|---------------|
D|--------------------------|---------------------------|---------------|
A|--------2---3---5PH-------|-----------------7PH-------|-------2---3---|
E|-0------------------------|-0-------5---7-------------|-0-------------|



[Main Verse Riff]
e|------------3----|------3-------|------------3----|------3----2--|
B|------------3----|------3-------|------------3----|------3----3--|
G|-------2---------|-2------------|-------2---------|-2------------|
D|-------2---------|-2------------|-------2---------|-2------------|  play 2x
A|---0PM-0---------|-0------------|---0PM-0---------|-0------------|
E|-----------------|--------------|-----------------|--------------|


Vocals only:
"She's the girl of my dreams, she's the girl on my mind
 She used to blame me for a fool cause she's the hurting kind"


[Vocal Break Riff]
e|----------------------|-------------------------|
B|-----------3/5---3----|-----3--3/5--3--3--------|
G|-2---------2/4---0----|-----0--2/4--2--0--2--0--|
D|-2----2----------0----|-----0----------0--2--0--|
A|-0----3p0-------------|-------------------0-----|
E|----------------------|-------------------------|

Vocals only:
"I lost my heart in the east another part in the west
You better jump back baby you're the girl I love the best"

** Play Vocal Break Riff again

Vocals only:
"I'm gonna ride the wind there's nothing I won't do
I'm coming up real fast I got my eyes on you"

** Play Main Verse Riff again

Vocals only:
"Yeah see you're eyes of love well tell me what you see
I see your long black hair moving over me, yeah"


[Vocal Break Riff]
e|----------------------|-------------------------|
B|-----------3/5---3----|-----3--3/5--3--3--------|
G|-2---------2/4---0----|-----0--2/4--2--0--2--0--|
D|-2----2----------0----|-----0----------0--2--0--|
A|-0----3p0-------------|-------------------0-----|
E|----------------------|-------------------------|
                "Oh yes, I feel good now now"

Vocals only:
"Let's talk about love, let's talk about love 
let's talk about love, let's talk about it"

  bar before chorus:
e|---------------|
B|---------------|
G|---------------|
D|---------------|
A|-----0h3p0---0-|
E|-0h3-------3---|


[Chorus]
      Guitar 1
e|------------------|-----------------|------------------|------------------|
B|------------------|-----------------|------------------|------------------|
G|-2------------2-5-|-------------5-7-|------------------|------------------|
D|-2------------2-5-|-------------5-7-|------------------|------------------|
A|-0------------0-3-|-------------3-5-|------------------|----------0---3p0-|
E|------------------|-----------------|------------------|----0h3p0---0-----|
 |
 |    Guitar 2 (hard to hear)
e|------------------|-----------------|------------------|------------------|
B|------------------|-----------------|------------------|------------------|
G|------------------|-----------------|------------------|------------------|
D|---2-2----2---2-5-|---2-2---2---2-5-|---2-2---2---2-5--|---2-2---2---2-5--|
A|-0---0----0---0---|-----------------|-0---0---0---0----|------------------|
E|------------------|-3---3---3---3---|------------------|-0----------------|

1     "Alright,         alright,         alright, I got my eyes on you
2     "Alright,         alright,         alright, I got my eyes on you, yeah"



[Verse 2]
e|------------3----|------3-------|------------3----|------3----2--|
B|------------3----|------3-------|------------3----|------3----3--|
G|-------2---------|-2------------|-------2---------|-2------------|
D|-------2---------|-2------------|-------2---------|-2------------|  play 2x
A|---0PM-0---------|-0------------|---0PM-0---------|-0------------|
E|-----------------|--------------|-----------------|--------------|


Vocals only:
"With my heart over here another part over there
I still got pretty love and baby I don't care"


[Vocal Break Riff]
e|----------------------|-------------------------|
B|-----------3/5---3----|-----3--3/5--3--3--------|
G|-2---------2/4---0----|-----0--2/4--2--0--2--0--|
D|-2----2----------0----|-----0----------0--2--0--|
A|-0----3p0-------------|-------------------0-----|
E|----------------------|-------------------------|

Vocals only:
"Oh, let's talk about love, let's talk about love
Let's talk about love," 


[Chorus 2]
      Guitar 1
e|------------------|-----------------|------------------|------------------|
B|------------------|-----------------|------------------|------------------|
G|-2------------2-5-|-------------5-7-|------------------|------------------|
D|-2------------2-5-|-------------5-7-|------------------|------------------|
A|-0------------0-3-|-------------3-5-|------------------|----------0---3p0-|
E|------------------|-----------------|------------------|----0h3p0---0-----|
 |
 |    Guitar 2 (hard to hear)
e|------------------|-----------------|------------------|------------------|
B|------------------|-----------------|------------------|------------------|
G|------------------|-----------------|------------------|------------------|
D|---2-2----2---2-5-|---2-2---2---2-5-|---2-2---2---2-5--|---2-2---2---2-5--|
A|-0---0----0---0---|-----------------|-0---0---0---0----|------------------|
E|------------------|-3---3---3---3---|------------------|-0----------------|

1     "Alright,         alright,         alright, I got my eyes on you
2     "Alright,         alright,         alright, I got my eyes on you, yeah"



Guitar 1 holds out A5 chord, Lyrics:

"Yeah, oh, oh, let's talk about it, aah!"



[Bridge]
   with tremelo
e|-------------------|-------------------|
B|-------------------|-------------------|
G|-9-------9---------|-----------7/9-----|
D|-9-------9---------|-----------7/9-----|  repeat with following lyrics
A|-7-------7---------|-----------5/7-----|
E|-------------------|-------------------|

"Don't blame me oh, won't hurt you don't blame me
It's plain to see you know that it'll be yeah, oh, oh!"



[Verse 3]
e|------------3----|------3-------|------------3----|------3----2--|
B|------------3----|------3-------|------------3----|------3----3--|
G|-------2---------|-2------------|-------2---------|-2------------|
D|-------2---------|-2------------|-------2---------|-2------------|  play 2x
A|---0PM-0---------|-0------------|---0PM-0---------|-0------------|
E|-----------------|--------------|-----------------|--------------|

Lyrics only:
"Aah, aah, aah she's the girl of my dreams she's the girl on my mind
She's got plenty for the fool the hurting kind"


[Vocal Break Riff]
e|----------------------|-------------------------|
B|-----------3/5---3----|-----3--3/5--3--3--------|
G|-2---------2/4---0----|-----0--2/4--2--0--2--0--|
D|-2----2----------0----|-----0----------0--2--0--|
A|-0----3p0-------------|-------------------0-----|
E|----------------------|-------------------------|

Lyrics only:
"Gonna round the world nothing I won't do
Coming up real fast I got my eyes on you"



[Final Chorus]
   Repeat until fade out

      Guitar 1
e|------------------|-----------------|------------------|------------------|
B|------------------|-----------------|------------------|------------------|
G|-2------------2-5-|-------------5-7-|------------------|------------------|
D|-2------------2-5-|-------------5-7-|------------------|------------------|
A|-0------------0-3-|-------------3-5-|------------------|----------0---3p0-|
E|------------------|-----------------|------------------|----0h3p0---0-----|
 |
 |    Guitar 2 (hard to hear)
e|------------------|-----------------|------------------|------------------|
B|------------------|-----------------|------------------|------------------|
G|------------------|-----------------|------------------|------------------|
D|---2-2----2---2-5-|---2-2---2---2-5-|---2-2---2---2-5--|---2-2---2---2-5--|
A|-0---0----0---0---|-----------------|-0---0---0---0----|------------------|
E|------------------|-3---3---3---3---|------------------|-0----------------|

     "Alright,         alright,         alright, I got my eyes on you


Overdub lead guitar added to last chorus
e|------------------------------------------|
B|-----13~--------13~--------13~--------13~-|
G|-/14--------/14--------/14--------/14-----|
D|------------------------------------------|
A|------------------------------------------|
E|------------------------------------------|

Key:
| /  slide up
| \  slide down
| h  hammer-on
| p  pull-off
| ~  vibrato
| +  harmonic
| x  Mute note

            
            
Suggest correction
Creating personal tab
Creating personal tab
You can edit any tab online and save it as your Personal.

You can edit, replace or remove any tab part or add personal notes – all changes will be seen only by you.

Personal tabs can be accessed anytime from any device, even offline.
Learn more »
Give kudos to tab author, rate the tab!
1 2 3 4 5
comments
print report bad tab
guest
You may want to rate the tab now too:
select rating
Wanna post a correction for this tab? Suggest correction