Oops, an error
Loading. Please wait.

Morning Dew Tab

2,156 views 1 this week
no commentswrite comment
1 2 3 4 5
2 more votes to show rating
add to favorites
launch autoscroll
font size
0
reset
how to read this tab
guitar tuner
Autoscroll
slow
fast
+/-
esc
set tempo
stop
Help us to improve Ultimate-Guitar.com Take our survey!
×
Author
Difficulty
novice
Intro Guitar:  Major virbrato (make transistions as smooth as possible)

----------------------------------------------------------------------------|
----------------------------------------------------------------------------|
----------------------------------------------------------------------------|
-2-/-9-7-/-11---------------------------------------------------------------|
----------------------------------------------------------------------------|
----------------------------------------------------------------------------|

Second Guitar:
(Down strum) :30(Down strum) Repeat this riff until 1:16 then go to this
-0-----------0------------------0-0--0-0-------|  0-0---0--0-0----|
-0-----------2---------------------------------|  ------0---------|
-0-----------2-----------------4-4-47-6-6h7p64-|  --2-2-----------|
-2-----------2---------------------------------|  -----5-4-2-2----|
-2-----------0---------------------------------|  ----------------|
-0-----------0---------------------------------|  ----------------|

and start over again at the 'ooh's'
------0-0---------0----|
-----------------------|
-----------------------|
--4-7--6--6h7p6-4------|
-----------------------|
-----------------------|

Repeat the pattern throughout the song
Suggest correction
Give kudos to tab author, rate the tab!
1 2 3 4 5
comments
print report bad tab
guest
You may want to rate the tab now too:
select rating
Wanna post a correction for this tab? Suggest correction