Oops, an error
Loading. Please wait.

Got None Acoustic tab

version 1
version 1

Whole song

Interactive

6,353 views 9 this week
5 commentsread comments
1 2 3 4 5
x 8
add to favorites
×
Save as Personal and add changes to this tab that will be seen only by you. Learn more ›
×
You can save this tab as Personal to edit and correct it or add notes. All changes will be seen only by you. Learn more »
launch autoscroll
font size
0
reset
how to read this tab
guitar tuner
edit
Autoscroll
slow
fast
+/-
esc
set tempo
stop
Author
*offical website: http://www.robertpost.no/default.asp*
Song:     Got None (Acousitc Version)
Artist:   Robert Post
Album:    Robert Post
Tabbed by Andrew Kirkwood

I don't have the album and I believe this to be a version from a demo, 
with just an acoustic guitar as backing. 

Chord positions:

Dm:   x57765
Gm:   355333
Bb:   688766
F:    133211
C:    x32010
c#5:  x664xx
Esus4:022200
E:    022100
G:    320033
Am:   x02210
G/B:  X20033
Dm(2):xx0231
F(2): x 8 10 10 10 8
Fmaj7:xx3210

Intro: (let ring throughout)


  Fmaj7                        Fmaj7                       
e|----------0-----------------|----------0-----------------|
B|-------1----------3--1------|-------1----------3--1------|
G|----2----------2----------2-|----2----------2----------0-|
D|-3--------------------------|-3--------------------------|
A|----------------------------|----------------------------|
E|----------------------------|----------------------------|

  C                            G
e|----------0-----------------|----------3-------0---------|
B|------------------3--1------|---------------------3------|
G|-------0-------0----------0-|-------0-------0----------0-|
D|----2-----------------------|----0-----------------------|
A|-3--------------------------|----------------------------|
E|----------------------------|-3--------------------------|

 Fmaj7                        Fmaj7                       
e|----------0-----------------|----------0-----------------|
B|-------1----------3--1------|-------1----------3--1------|
G|----2----------2----------2-|----2----------2----------0-|
D|-3--------------------------|-3--------------------------|
A|----------------------------|----------------------------|
E|----------------------------|----------------------------|

  G                            G                       
e|----------------------------|----------------------------|
B|----------3-------1--0------|----------3-------1--0------|
G|-------0-------0----------0-|-------0-------0----------0-|
D|----0-----------------------|----0-----------------------|
A|----------------------------|----------------------------|
E|-3--------------------------|-3--------------------------|

Verse: (with palm muting)

| Dm | Dm | Dm| Dm |
| Gm | Bb | F | C C#5 |
| Dm | Dm | Dm| Dm |
| Gm | Bb | F | Esus4 E |

Pre-Chorus:

| Am | G/B | C | Dm(2) |
| F  | F | G | G |

Chorus:

| F | F | C | G |
| F | F | G | G |

Interlude (After 1st Chorus):

  Dm(2)                         Dm(2)                       
e|-1------1------1------1------|-1------1------1------1------|
B|-3------3------3------3------|-3------3------3------3------|
G|-2------2------2------2----0-|-2------2------2------2----0-|
D|-0------0------0------0----0-|-0------0------0------0----0-|
A|-----------------------------|-----------------------------|
E|-----------------------------|-----------------------------|

 |........................Palm Muting........................|

 
  Dm                            Dm               A5        
e|-----------------------------|-----------------------------|
B|--------------------1----3---|-/5.----3--------------------|
G|---------------2-------------|-----------------2----2------|
D|-0--------3------------------|-----------------2----2------|
A|-----------------------------|-----------------0----0------|
E|-----------------------------|-----------------------------|
                               (Slide)

Verse 2:

| Dm | Dm | Dm| Dm |
| Gm | Bb | F | Esus4 E |

Pre-Chorus: Same as previous

Chorus: 

| F | F | C | G |
| F | F | G | G |
| F | F | C | G |
| F | F | G | G |


Bridge:

| Dm | F(2) | C | G |
| Dm | F(2) | G | G |

Pre-Chorus: 
(let ring)

  Am                            G/B                       
e|----------------------------|----------------------------|
B|------------1---------------|-------------0--------------|
G|-------------------2--------|------------------0---------|
D|-------2----------------0---|-------0----------------0---|
A|-0--------------------------|-2--------------------------|
E|----------------------------|----------------------------|


  c                            Dm                       
e|----------------------------|----1-----1-----0-----------|
B|------------1---------------|---2----------------3-------|
G|-------------------0--------|--3---------------------2---|
D|-------2----------------2---|-0--------------------------|
A|-3--------------------------|----------------------------|
E|----------------------------|----------------------------|
                              (sweep)


 Fmaj7                        Fmaj7                       
e|----------0-----------------|----------0-----------------|
B|-------1----------3--1------|-------1----------3--1------|
G|----2----------2----------2-|----2----------2----------0-|
D|-3--------------------------|-3--------------------------|
A|----------------------------|----------------------------|
E|----------------------------|----------------------------|


  G                          G                       
e|-3-3-3-3-3-3-3-3-3-3-3-3-|-3-------------------------|
B|-3-3-3-3-3-3-3-3-3-3-3-3-|-3-------------------------|
G|-0-0-0-0-0-0-0-0-0-0-0-0-|-0-------------------------|
D|-0-0-0-0-0-0-0-0-0-0-0-0-|-0-------------------------|
A|-2-2-2-2-2-2-2-2-2-2-2-2-|-2-------------------------|
E|-3-3-3-3-3-3-3-3-3-3-3-3-|-3-------------------------|
(build to crescendo)

chorus:

| F | F | C | G |
| F | F | G | G |
| F | F | C | G |
| F | F | G | G |
| F | F | C | G |
| F | F | G | G |
| Fmaj7 |
Suggest correction
Creating personal tab
Creating personal tab
You can edit any tab online and save it as your Personal.

You can edit, replace or remove any tab part or add personal notes – all changes will be seen only by you.

Personal tabs can be accessed anytime from any device, even offline.
Learn more »
comments
print report bad tab
5 comments total. Showing first comments.
0 reply
noelgall 125 Dec 31, 2005 01:44 AM

not accurate at all

0 reply
noelgall 125 Dec 31, 2005 01:44 AM

bad

0 reply
'shroom 73 Jan 08, 2006 02:04 AM

Sounds pretty much perfect to me, good tab. (Noelgall - sure you're comparing to the acoustic version?)

guest
You may want to rate the tab now too:
select rating
Wanna post a correction for this tab? Suggest correction