Oops, an error
Loading. Please wait.

Ain't Nothing Wrong intro tab

12,427 views 6 this week
3 commentsread comments
1 2 3 4 5
x 5
add to favorites
×
Save as Personal and add changes to this tab that will be seen only by you. Learn more ›
×
You can save this tab as Personal to edit and correct it or add notes. All changes will be seen only by you. Learn more »
launch autoscroll
font size
0
reset
how to read this tab
guitar tuner
edit
Autoscroll
slow
fast
+/-
esc
set tempo
stop
Author
Its really done with a slide guitar but it sounds good on a guitar with wah.


E|----------------------------------------------------------------|
B|---9b11-7-------------------------9b11-7------------------------|
G|-----------8p6-----------3----------------8p6-----------3-------|
D|----------------4h6p4--6---4-------------------4h6p4--6---4-6b--|
A|------------------------------6---------------------------------|
E|----------------------------------------------------------------|


E|----------------------------------------------------------------|
B|----------------------------------------------------------------|
G|---555555555-44444444-------------------------------------------|
D|---555555555-44444444-------------------------------------------|
A|---333333333-22222222-------------------------------------------|
E|----------------------------------------------------------------|



            
            
Suggest correction
Creating personal tab
Creating personal tab
You can edit any tab online and save it as your Personal.

You can edit, replace or remove any tab part or add personal notes – all changes will be seen only by you.

Personal tabs can be accessed anytime from any device, even offline.
Learn more »
comments
print report bad tab
3 comments total.
0 reply
hulk911 10 Oct 29, 2007 04:23 AM

wheres the rest??????????????????????

0 reply
janus2014402 10 Dec 08, 2010 10:57 AM

its not really a slide guitar, its a pedal steel guitar.

0 reply
braaterz6 10 Jan 04, 2014 08:18 AM

I play it with slides like this (sounds a little more Robert-like)

E|-------------------------|
B|-------------------------|
G|--8--8/11\8--------------|
D|--8---------6\4-6/8-4----|
A|--6-------------------6\-|
E|-------------------------|

or with the slight variation as above

E|-------------------------|
B|----9/11\7---------------|
G|--8--------8-------------|
D|--8----------6\4-6/8-4---|
A|--6-------------------6\-|
E|-------------------------|

End with
E|-------------------------|
B|-------------------------|
G|--10-----9----8----------|
D|--10-x7--9-x7-8----------|
A|---8-----7----6----------|
E|-------------------------|

guest
You may want to rate the tab now too:
select rating
Wanna post a correction for this tab? Suggest correction