Oops, an error
Loading. Please wait.

Found tab

85 views 6 this week
no commentswrite comment
1 2 3 4 5
3 more votes to show rating
add to favorites
×
Save as Personal and add changes to this tab that will be seen only by you. Learn more ›
×
You can save this tab as Personal to edit and correct it or add notes. All changes will be seen only by you. Learn more »
launch autoscroll
font size
0
reset
how to read this tab
guitar tuner
edit
Autoscroll
slow
fast
+/-
esc
set tempo
stop
Author
[FIRST GUITAR TAB]


(Riff-A)

e|–-4--4-4-4-4-4-4-4-4-4-4-4-4--|-2--2-2-2-2-2-2-2-2-2-2-2-2--|
B|–-5--5-5-5-5-5-5-5-5-5-5-5-5--|-4--4-4-4-4-4-4-4-4-4-4-4-4--|
G|–-6--6-6-6-6-6-6-6-6-6-6-6-6--|-4--4-4-4-4-4-4-4-4-4-4-4-4--|
D|–-6--6-6-6-6-6-6-6-6-6-6-6-6--|-2--2-2-2-2-2-2-2-2-2-2-2-2--|
A|–-4--4-4-4-4-4-4-4-4-4-4-4-4--|-2--2-2-2-2-2-2-2-2-2-2-2-2--|
E|------------------------------|-----------------------------|

e|--------------|-2-2--2-2-2-2--|-2--2-2-2-2-2-2-2-2-2-2-2-2--|
B|–-0--0-0-0-0--|-5-5--5-5-5-5--|-5--5-5-5-5-5-5-5-5-5-5-5-5--|
G|–-2--2-2-2-2--|-4-4--4-4-4-4--|-4--4-4-4-4-4-4-4-4-4-4-4-4--|
D|–-2--2-2-2-2--|-2-2--2-2-2-2--|-4--4-4-4-4-4-4-4-4-4-4-4-4--|
A|–-0--0-0-0-0--|-2-2--2-2-2-2--|-2--2-2-2-2-2-2-2-2-2-2-2-2--|
E|--------------|---------------|-----------------------------|


(Riff-B)

e|----------------------------------|---------------------------------------|
B|–-----5---5-----5-----7---7---7-5-|-----4---4-----4---4b(5)-4b(5)-4b(5)-4-|
G|–-6-6---6---6-6---6-6---6---6-----|-4-4---4---4-4---4---------------------|
D|----------------------------------|---------------------------------------|
A|----------------------------------|---------------------------------------|
E|----------------------------------|---------------------------------------|

e|-----------------------------------|-------------------4--------------|
B|–-----5---5-----5----------5-----5-|-----7---7-----7-----7-5-7-4---5--|
G|–---4---4-----4--------4-------4---|---4---4-----4---------------6----|
D|--2---------2--------2---2---2-----|-4---------4-----4----------------|
A|-------------------2---------------|----------------------------------|
E|-----------------------------------|----------------------------------|


(Riff-C)

e|–-7-----7-----7--------------------------|–-7-----7-----7---------------------|
B|–---5-----5-----5---4b(5)-4b(5)-4b(5)-4--|–---5-----5-----5---5/7\5/9\5/7\5~--|
G|------6-----6-----6----------------------|------4-----4-----4-----------------|
D|-----------------------------------------|------------------------------------|
A|-----------------------------------------|------------------------------------|
E|-----------------------------------------|------------------------------------|

e|----------------------------------|-------------------4--------------|
B|–-----5---5-----5---------5-----5-|-----7---7-----7-----7-5-7-4---5--|
G|----4---4-----4-------4-------4---|---4---4-----4---------------6----|
D|–-2---------2-------2---2---2-----|-4---------4-----4----------------|
A|------------------2---------------|----------------------------------|
E|----------------------------------|----------------------------------|


(Riff-D - empty) 


(Riff-E)

e|------------------------------------------------------------|
B|–-9h12p9\7~-7h9p7\5~-5~-7~-7/9~-7~\5~/7~-7h9p7\5~-5h7p5\4~--|
G|------------------------------------------------------------|
D|------------------------------------------------------------|
A|------------------------------------------------------------|
E|------------------------------------------------------------|

e|----------------------------------------------------------|
B|–-9h12p9\7~-7h9p7\5~-5~-7~-7/9~-7~\5~/7~-4b5b4~-----------|
G|------------------------------------------------4~/6~\4~--|
D|----------------------------------------------------------|
A|----------------------------------------------------------|
E|----------------------------------------------------------|


(Riff-F)

e|------------------------------------------------------------|
B|–-9h12p9\7~-7h9p7\5~-5~-7~-7/9~-7~\5~/7~-7h9p7\5~-5h7p5\4~--|
G|------------------------------------------------------------|
D|------------------------------------------------------------|
A|------------------------------------------------------------|
E|------------------------------------------------------------|


(Riff-G)

e|–-4--4-4-4-4-4-4-4-4-4-4-4-4--|-2--2-2-2-2-2-2-2-2-2-2-2-2--|
B|–-5--5-5-5-5-5-5-5-5-5-5-5-5--|-4--4-4-4-4-4-4-4-4-4-4-4-4--|
G|–-6--6-6-6-6-6-6-6-6-6-6-6-6--|-4--4-4-4-4-4-4-4-4-4-4-4-4--|
D|–-6--6-6-6-6-6-6-6-6-6-6-6-6--|-2--2-2-2-2-2-2-2-2-2-2-2-2--|
A|–-4--4-4-4-4-4-4-4-4-4-4-4-4--|-2--2-2-2-2-2-2-2-2-2-2-2-2--|
E|------------------------------|-----------------------------|

e|--------------|-2-2--2-2-2-2--|-2--2-2-2-2-2-2-2-2-2-2-2-2--|
B|–-0--0-0-0-0--|-5-5--5-5-5-5--|-5--5-5-5-5-5-5-5-5-5-5-5-5--|
G|–-2--2-2-2-2--|-4-4--4-4-4-4--|-4--4-4-4-4-4-4-4-4-4-4-4-4--|
D|–-2--2-2-2-2--|-2-2--2-2-2-2--|-4--4-4-4-4-4-4-4-4-4-4-4-4--|
A|–-0--0-0-0-0--|-2-2--2-2-2-2--|-2--2-2-2-2-2-2-2-2-2-2-2-2--|
E|--------------|---------------|-----------------------------|


[SECOND GUITAR TAB]


(Riff-A)

e|–-4-------2----|-------2---2--|
B|–-5-------4----|---0---5---5--|
G|–-6-------4----|---2---4---4--|
D|–-6-------2----|---2---2---4--|
A|–-4-------2----|---0---2---2--|
E|---------------|--------------|

e|-----------------------------------|--------------------------|
B|–-5-5-5-5-5-5-5-5-5-5-5-5-5-5-5-5--|-4~-4~-4~-4~-4~-4~-4~-4~--|
G|-----------------------------------|--------------------------|
D|-----------------------------------|--------------------------|
A|-----------------------------------|--------------------------|
E|-----------------------------------|--------------------------|

e|-----------------------------------------------------------------------|
B|–----------------------------------------------------------------------|
G|–-2-2-2-2-2-2-2-2-----------------4-4-4-4-4-4-4-4-4-4-4-4-4-4-4-4-4-4--|
D|------------------2-2-2-2-2-2-2-2--------------------------------------|
A|-----------------------------------------------------------------------|
E|-----------------------------------------------------------------------| 

e|-----------------------------------|--------------------------|
B|–-5-5-5-5-5-5-5-5-5-5-5-5-5-5-5-5--|-4~-4~-4~-4~-4~-4~-4~-4~--|
G|-----------------------------------|--------------------------|
D|-----------------------------------|--------------------------|
A|-----------------------------------|--------------------------|
E|-----------------------------------|--------------------------|

e|-----------------------------------------------------------------------|
B|–----------------------------------------------------------------------|
G|–-2-2-2-2-2-2-2-2-----------------4-4-4-4-4-4-4-4-4-4-4-4-4-4-4-4-4-4--|
D|------------------2-2-2-2-2-2-2-2--------------------------------------|
A|-----------------------------------------------------------------------|
E|-----------------------------------------------------------------------|


(Riff-B)

e|–-4-4-4-4-4---2-2-2-2-2--|---------2-2-2---2-2-2--|
B|–-5-5-5-4-4---4-4-4-4-4--|-0-0-0---5-5-5---5-5-5--|
G|–-6-6-6-4-4---4-4-4-4-4--|-2-2-2---4-4-4---4-4-4--|
D|–-6-6-6-6-6---2-2-2-2-2--|-2-2-2---2-2-2---4-4-4--|
A|–-4-4-4-4-4---2-2-2-2-2--|-0-0-0---2-2-2---2-2-2--|
E|-------------------------|------------------------|


(Riff-C)

e|–-4-4-4-4-4---2-2-2-2-2--|---------2-2-2---2-2-2--|
B|–-5-5-5-4-4---4-4-4-4-4--|-0-0-0---5-5-5---5-5-5--|
G|–-6-6-6-4-4---4-4-4-4-4--|-2-2-2---4-4-4---4-4-4--|
D|–-6-6-6-6-6---2-2-2-2-2--|-2-2-2---2-2-2---4-4-4--|
A|–-4-4-4-4-4---2-2-2-2-2--|-0-0-0---2-2-2---2-2-2--|
E|-------------------------|------------------------|


(Riff-D)

e|---------4------2---|----------4------2--|
B|–-0------5------4---|---0------5------4--|
G|–-2------6------4---|---2------6------4--|
D|–-2------6------2---|---2------6------2--|
A|--0------4------2---|---0------4------2--|
E|--------------------|--------------------|


(Riff-E)

e|--------------------4-4-4-4-4-4-4-4---2-2-2-2-2-2-2-2-2-2-2-2-2-2-2-2--|
B|–-0-0-0-0-0-0-0-0---5-5-5-5-5-5-5-5---4-4-4-4-4-4-4-4-4-4-4-4-4-4-4-4--|
G|–-2-2-2-2-2-2-2-2---6-6-6-6-6-6-6-6---4-4-4-4-4-4-4-4-4-4-4-4-4-4-4-4--|
D|–-2-2-2-2-2-2-2-2---6-6-6-6-6-6-6-6---2-2-2-2-2-2-2-2-2-2-2-2-2-2-2-2--|
A|–-0-0-0-0-0-0-0-0---4-4-4-4-4-4-4-4---2-2-2-2-2-2-2-2-2-2-2-2-2-2-2-2--|
E|-----------------------------------------------------------------------|


(Riff-F)

e|----------4-------2--–-------4-------2-----------2---2--|
B|–-0-------5-------4--------–-5-------4-------0---5---5--|
G|–-2-------6-------4--------–-6-------4-------2---4---4--|
D|–-2-------6-------2--------–-6-------2-------2---2---4--|
A|--0-------4-------2--------–-4-------2-------0---2---2--|
E|--------------------------------------------------------|


(Riff-G)

e|-----------------------------------|--------------------------|
B|–-5-5-5-5-5-5-5-5-5-5-5-5-5-5-5-5--|-4~-4~-4~-4~-4~-4~-4~-4~--|
G|-----------------------------------|--------------------------|
D|-----------------------------------|--------------------------|
A|-----------------------------------|--------------------------|
E|-----------------------------------|--------------------------|

e|-----------------------------------------------------------------------|
B|–----------------------------------------------------------------------|
G|–-2-2-2-2-2-2-2-2-----------------4-4-4-4-4-4-4-4-4-4-4-4-4-4-4-4-4-4--|
D|------------------2-2-2-2-2-2-2-2--------------------------------------|
A|-----------------------------------------------------------------------|
E|-----------------------------------------------------------------------|


***********************************
| /   Slide up
| \   Slide down
| h   Hummer-on
| p   Pull-off
| ~   ~ibrato
| b   Bend
***********************************

            
            
Suggest correction
Creating personal tab
Creating personal tab
You can edit any tab online and save it as your Personal.

You can edit, replace or remove any tab part or add personal notes – all changes will be seen only by you.

Personal tabs can be accessed anytime from any device, even offline.
Learn more »
Give kudos to tab author, rate the tab!
1 2 3 4 5
comments
print report bad tab
guest
You may want to rate the tab now too:
select rating
Wanna post a correction for this tab? Suggest correction