Oops, an error
Loading. Please wait.

No Easy Way Out bass

version 1
version 1

Whole song

Interactive

22,671 views 24 this week
1 commentread comment
1 2 3 4 5
x 3
add to favorites
×
Save as Personal and add changes to this tab that will be seen only by you. Learn more ›
×
You can save this tab as Personal to edit and correct it or add notes. All changes will be seen only by you. Learn more »
launch autoscroll
font size
0
reset
guitar tuner
backing track
0:00
0:00
edit
Autoscroll
slow
fast
+/-
esc
set tempo
stop
Author
Difficulty
intermediate
Robert Tepper - No Easy Way Out
-------------------------------

Tabbed By : Jamie Hawker
e-mail: torico@hotmail.co.uk

Tuning: Standard

I tried to make notes of where all the changes and differences are,
I think I've about covered everything, remember to listen for timings etc.

[Main Bass Line] (Intro / Chorus / Solo / Outro)

G|---|-------------------------------------------------------|-------|---|
D|---|-------------------------------------------------------|-------|---|
A|-\-|-5-5-5-7-7-7-7-3-3-3-5/7-5-5-5-----5-7/9-7-----3-3-5/7-|-5-5---|-5-|
E|---|-------------------------------7-7---------7-7---------|-----7-|---|
  (1)                           (2)                             (3)   (4)

(1) A slide down, used for the intro and when a chorus comes in
(2) Main bass line used
(3) Used to join the bass line when it repeats (not used with first intro)
(4) At the end of a chorus skip (3) and end on (4)

[Verse] Bass Line (Part 1)

G|-----|--------------------|----------------------------------------|-----|
D|-----|--------------------|----------------------------------------|-----|
A|-7-7-|--------------------|-7-7--7-7--5-5--5-5--3-3--3-3--2-2--2-2-|-2-2-|
E|-----|-0-0--0-0--0-0--0-0-|----------------------------------------|-----|
   (5)          (6)                              (7)                   (8)

(5) A small pre-verse riff (not used with first verse)
(6) Extra notes used at the start of the first verse only
(7) The notes are often played in triplets,
    For verse 2 start with 0's instead of 7's 
(8) Only used with verse 1

Verse Bass Line (Part 2)

G|---------------------------------------------|
D|---------------------------------------------|
A|-----------5-5--5-5--5-5--3-3--3-3--2-2--2-2-|
E|-0-0--0-0------------------------------------|
                     (9)

(9) This leads onto the chorus

Repeat main bass line throughout guitar solo
After the guitar solo and singing the bass plays (9)
Then back to the main bass line though to fade out



************************************

| /  Slide up
| \  Slide down

************************************

            
            
Suggest correction
Creating personal tab
Creating personal tab
You can edit any tab online and save it as your Personal.

You can edit, replace or remove any tab part or add personal notes – all changes will be seen only by you.

Personal tabs can be accessed anytime from any device, even offline.
Learn more »
Give kudos to tab author, rate the tab!
1 2 3 4 5
comments
print report bad tab
1 comment total.
0 reply
Landmines 20 Jul 17, 2008 01:33 PM

Rocky IV!

guest
You may want to rate the tab now too:
select rating
Wanna post a correction for this tab? Suggest correction