Oops, an error
Loading. Please wait.

Maryan tab

67 views 6 this week
no commentswrite comment
1 2 3 4 5
3 more votes to show rating
add to favorites
×
Save as Personal and add changes to this tab that will be seen only by you. Learn more ›
×
You can save this tab as Personal to edit and correct it or add notes. All changes will be seen only by you. Learn more »
launch autoscroll
font size
0
reset
how to read this tab
guitar tuner
edit
Autoscroll
slow
fast
+/-
esc
set tempo
stop
About this tab version
This is the only version. Was this info helpful? Yes No
7/8
 
[Intro]
   A9                     (x17)
e|-0---0---0---0------|  
B|--0---0---0---0-----| 
G|---6---6---6---6--6-| 
D|-----------------7--|
A|--------------------|
E|--------------------|  

[Verse]
Over an ocean away                           Nayram
Like salmon                                  To the delta
Turning back for                             With the rivulets tumbling down  
  A9                                          G7add6
e|-0---0---0---0------|-0---0---0---0------|-0---0---0---0--------|-0---0---0---0--------|
B|--0---0---0---0-----|--0---0---0---0-----|--0---0---0---0-------|--0---0---0---0-------|  
G|---6---6---6---6--6-|---6---6---6---6--6-|---10--10--10--10--10-|---10--10--10--10--10-|
D|-----------------7--|-----------------7--|-----------------12---|-----------------12---|
A|--------------------|--------------------|----------------------|----------------------|
E|--------------------|--------------------|----------------------|----------------------|

Glide over sand
Around the rocks
Back through the wavering
  Cmaj7
e|-0---0---0---0----------|--0---0---0---0-----------| 
B|--0---0---0---0---------|---0---0---0---0----------|  
G|---12--12---12--12----12|-----12--12---12--12----12|
D|-------------------10---|---------------------10---|
A|------------------------|--------------------------|
E|------------------------|--------------------------|

weeds                                          
And the turds                                 Along away
In the way                                    Over gravel
Riversmell                                    The weirs of the tributaries
On the route
 F7b5add#7                                            E7
e|-0---0---0---0-------|--0---0---0---0------|-0---0---0---0-------|--0---0---0---0------| 
B|--0---0---0---0------|---0---0---0---0-----|--0---0---0---0------|---0---0---0---0-----|   
G|---8---8---8---8---8-|-----8--8---8---8---8|---7---7---7---7---7-|-----7--7---7---7---7| 
D|-----------------7---|------------------7--|-----------------6---|------------------6--|
A|---------------------|---------------------|---------------------|---------------------|
E|---------------------|---------------------|---------------------|---------------------|
  
Against the icy waterflow
To Maryan
   A7add9             (x2)
e|-0---0---0---0------|  
B|--0---0---0---0-----| 
G|---6---6---6---6--6-| 
D|-----------------5--|
A|--------------------|
E|--------------------|  

[Break]
  D7add6add9   (x6)
e|-0---0-------|-0-----0----|
B|--0---0------|---0----0---| 
G|---5---5---5-|-----5----5-| 
D|---------4---|------------|
A|-------------|------------|
E|-------------|------------|

  A/D     G/D  D
e|-5----5--3---2--|
B|----5-----4---3-|
G|--5--------3---2|
D|----------------|
A|----------------|
E|----------------|

[Solo]                       
  A9                                        (x2)   E7
e|-0---0---0---0------|-0---0---0---0------|-0---0---0---0--------|-0---0---0---0--------|
B|--0---0---0---0-----|--0---0---0---0-----|--0---0---0---0-------|--0---0---0---0-------|  
G|---6---6---6---6--6-|---6---6---6---6--6-|---7---7---7---7--7---|---7---7---7---7--7---|
D|-----------------7--|-----------------7--|-----------------6----|-----------------6----|
A|--------------------|--------------------|----------------------|----------------------|
E|--------------------|--------------------|----------------------|----------------------|

  F7b5#7
e|-0---0---0---0----------|--0---0---0---0-------| 
B|--0---0---0---0---------|---0---0---0---0------|  
G|----8---8---8--8----8---|-----8---8---8--8---8-|
D|-----------------7------|------------------7---|
A|------------------------|----------------------|
E|------------------------|----------------------|

   Cmaj7
e|-0---0---0---0----------|--0---0---0---0-----------| 
B|--0---0---0---0---------|---0---0---0---0----------|  
G|---12--12---12--12----12|-----12--12---12--12----12|
D|-------------------10---|---------------------10---|
A|------------------------|--------------------------|
E|------------------------|--------------------------|

        G7add6
e|-0---0---0---0--------|-0---0---0---0--------|
B|--0---0---0---0-------|--0---0---0---0-------|  
G|---10--10--10--10--10-|---10--10--10--10--10-|
D|-----------------12---|-----------------12---|
A|----------------------|----------------------|
E|----------------------|----------------------|

               (x8)
e|-0---0-------|  
B|--0---0------|
G|---6---6---6-| 
D|---------7---|
A|-------------|
E|-------------|

             (x2)
e|-0---0-------|  
B|--0---0------| 
G|---5---5---5-| 
D|---------4---|
A|-------------|
E|-------------|

e|-0---0-------|  
B|--0---0------| 
G|---5---5---5-| 
D|---------5---|
A|-------------|
E|-------------|

e|-0---0-------|  
B|--0---0------| 
G|---5---5---5-| 
D|---------4---|
A|-------------|
E|-------------|

e|-0---0-------|  
B|--0---0------| 
G|---5---5---5-| 
D|---------5---|
A|-------------|
E|-------------|

e|-0---0-------|  
B|--0---0------| 
G|---5---5---5-| 
D|---------4---|
A|-------------|
E|-------------|

e|-0---0-------|  
B|--0---0------| 
G|---5---0---5-| 
D|-------------|
A|-------------|
E|-------------|

e|-5----5--3---2--|
B|----6-----4-----|
G|--5--------3---2|
D|----------------|
A|----------------|
E|----------------|

e|-0---0---0---0------|  
B|--0---0---0---0-----| 
G|---6---6---6---6--6-| 
D|-----------------7--|
A|--------------------|
E|--------------------|

            
            
Suggest correction
Creating personal tab
Creating personal tab
You can edit any tab online and save it as your Personal.

You can edit, replace or remove any tab part or add personal notes – all changes will be seen only by you.

Personal tabs can be accessed anytime from any device, even offline.
Learn more »
Give kudos to tab author, rate the tab!
1 2 3 4 5
comments
print report bad tab
guest
You may want to rate the tab now too:
select rating
Wanna post a correction for this tab? Suggest correction