Oops, an error
Loading. Please wait.

Killing Me Softly Bass Tab

version 1
version 1

Whole song

  • Flack's version spent a total of five weeks atop the Billboard Hot 100 in 1973.

Interactive

133 views 27 this week
no commentswrite comment
1 2 3 4 5
3 more votes to show rating
add to favorites
launch autoscroll
font size
0
reset
guitar tuner
Autoscroll
slow
fast
+/-
esc
set tempo
stop
Help us to improve Ultimate-Guitar.com Take our survey!
×
Author
Difficulty
novice
About this tab version
Flack's version spent a total of five weeks atop the Billboard Hot 100 in 1973. Was this info helpful? Yes No
  Rest for 14 bars

  [Intro]
G|----------------|----------------|----------------|----------------|
D|1---------------|----------------|1---------------|----------------|
A|----------------|--------3-1-3-1-|----------------|--------3-1-3-1-|
E|----------------|----------------|----------------|----------------|

G|----------------|----------------|----------------|----------------|
D|1---------------|----------------|1---------------|----------------|
A|----------------|--------3-1-3-1-|----------------|--------3-1-3-1-|
E|----------------|----------------|----------------|----------------|

  [Verse]
G|----------------|--------------0-|1---------------|----------------|
D|--------------0-|1---------------|----------------|----------------|
A|1---------------|----------------|----------------|4-------------0-|
E|----------------|----------------|----------------|----------------|

G|----------------|----------------|----------------|----------------|
D|--------------0-|1-------------1-|3---------------|------------3---|
A|1---------------|----------------|----------------|------3-3-------|
E|----------------|----------------|----------------|----------------|

G|----------------|--------------0-|1---------------|----------------|
D|--------------0-|1---------------|----------------|--------------2-|
A|1---------------|----------------|------------1-2-|3---------------|
E|----------------|----------------|----------------|----------------|

  [Chorus]
G|----------------|----------------|--------------0-|1-------------0-|
D|3---------------|--------------0-|1---------------|----------------|
A|--------------0-|1---------------|----------------|----------------|
E|----------------|----------------|----------------|----------------|

G|----------------|----------------|----------------|--------------0-|
D|3-----------1-1-|0-------------0-|1---------------|----------------|
A|----------------|------------1---|----------------|4---------------|
E|----------------|----------------|----------------|----------------|

G|1---------------|----------1-----|----------------|----------------|
D|----------------|----------------|4---------------|----------------|
A|--------------3-|4-----4-----4---|--------------4-|--------4-------|
E|----------------|----------------|----------------|----------------|

G|----------------|----------------|
D|----------------|----------------|
A|3---------------|----------------|
E|----------------|----------------|

  [Verse]
G|----------------|--------------0-|1---------------|----------------|
D|--------------0-|1---------------|----------------|----------------|
A|1---------------|----------------|----------------|4-------------0-|
E|----------------|----------------|----------------|----------------|

G|----------------|----------------|----------------|----------------|
D|--------------0-|1-------------1-|3---------------|------------3---|
A|1---------------|----------------|----------------|------3-3-------|
E|----------------|----------------|----------------|----------------|

G|----------------|--------------0-|1---------------|----------------|
D|--------------0-|1---------------|----------------|--------------2-|
A|1---------------|----------------|------------1-2-|3---------------|
E|----------------|----------------|----------------|----------------|

 [Chorus]
G|----------------|----------------|--------------0-|1-------------0-|
D|3---------------|--------------0-|1---------------|----------------|
A|--------------0-|1---------------|----------------|----------------|
E|----------------|----------------|----------------|----------------|

G|----------------|----------------|----------------|--------------0-|
D|3-----------1-1-|0-------------0-|1---------------|----------------|
A|----------------|------------1---|----------------|4---------------|
E|----------------|----------------|----------------|----------------|

G|1---------------|----------1-----|----------------|----------------|
D|----------------|----------------|4---------------|----------------|
A|--------------3-|4-----4-----4---|--------------4-|--------4-------|
E|----------------|----------------|----------------|----------------|

G|----------------|----------------|
D|----------------|----------------|
A|3---------------|----------------|
E|----------------|----------------|

  [Verse]
G|----------------|--------------0-|1---------------|----------------|
D|--------------0-|1---------------|----------------|----------------|
A|1---------------|----------------|----------------|4-------------0-|
E|----------------|----------------|----------------|----------------|

G|----------------|----------------|----------------|----------------|
D|--------------0-|1-------------1-|3---------------|------------3---|
A|1---------------|----------------|----------------|------3-3-------|
E|----------------|----------------|----------------|----------------|

G|----------------|--------------0-|1---------------|----------------|
D|--------------0-|1---------------|----------------|--------------2-|
A|1---------------|----------------|------------1-2-|3---------------|
E|----------------|----------------|----------------|----------------|

  [Chorus]
G|----------------|----------------|--------------0-|1-------------0-|
D|3---------------|--------------0-|1---------------|----------------|
A|--------------0-|1---------------|----------------|----------------|
E|----------------|----------------|----------------|----------------|

G|----------------|----------------|----------------|--------------0-|
D|3-----------1-1-|0-------------0-|1---------------|----------------|
A|----------------|------------1---|----------------|4---------------|
E|----------------|----------------|----------------|----------------|

G|1---------------|----------1-----|----------------|----------------|
D|----------------|----------------|4---------------|----------------|
A|--------------3-|4-----4-----4---|--------------4-|--------4-------|
E|----------------|----------------|----------------|----------------|

G|----------------|----------------|
D|----------------|----------------|
A|3---------------|----------------|
E|----------------|----------------|

  [Outro]
G|----------------|----------------|----------------|1-----------0---|
D|3-------------3-|----------------|1-------------1-|----------------|
A|----------------|1-------------1-|----------------|--------------3-|
E|----------------|----------------|----------------|----------------|

G|----------------|----------------|--------------1-|----------------|
D|3-----------1---|0-----------0---|1---------------|--------------1-|
A|--------------1-|--------------1-|----------------|4-----------4---|
E|----------------|----------------|----------------|----------------|

G|1-------------1-|----------------|----------------|----------------|
D|----------------|----------------|4---------------|4-----4-----4---|
A|----------------|4-------------4-|--------------4-|--------4-4-----|
E|----------------|----------------|----------------|----------------|

G|----------------|----------------|----------------|----------------|
D|----------------|----------------|--------------3-|----3---------3-|
A|3---------------|----------------|3---3-----------|1---------------|
E|----------------|----------------|----------------|----------------|

G|----------------|----------------|----------------|----------------|
D|--------------0-|1---1-----------|3-------------1-|----------------|
A|1---1-----------|--------------3-|----3-----------|1---1---------1-|
E|----------------|------------3---|----------------|----------------|

G|----------------|----------------|--------------0-|1---1-----------|
D|----------------|1---1---------0-|1---1-----------|----------------|
A|1---1-----------|----------------|----------------|--------------3-|
E|----------------|----------------|----------------|----------------|

G|----------------|----------------|
D|----------------|----------------|
A|4-----3-----4-4-|4-----3-4---4---|
E|----------------|----------------|

G|----------------|----------------|----------------|----------------|
D|----------------|----------------|--------------3-|----3---------3-|
A|3---------------|----------------|3---3-----------|1---------------|
E|----------------|----------------|----------------|----------------|

G|----------------|----------------|----------------|----------------|
D|--------------0-|1---1-----------|3-------------1-|----------------|
A|1---1-----------|--------------3-|----3-----------|1---1---------1-|
E|----------------|------------3---|----------------|----------------|

G|----------------|----------------|--------------0-|1---1-----------|
D|----------------|1---1---------0-|1---1-----------|----------------|
A|1---1-----------|----------------|----------------|----------------|
E|----------------|----------------|----------------|----------------|

G|----------------|----------------|----------------|----------------|
D|----------------|----------------|----------------|----------------|
A|4---4-4-4---4-4-|--4-4---4---4---|3---------------|----------------|
E|----------------|----------------|----------------|----------------|
Suggest correction
Give kudos to tab author, rate the tab!
1 2 3 4 5
comments
print report bad tab
guest
You may want to rate the tab now too:
select rating
Wanna post a correction for this tab? Suggest correction