Oops, an error
Loading. Please wait.

The First Time Ever I Saw Your Face Tab

version 1
version 1

Whole song

Interactive

38,026 views 27 this week
1 commentread comment
1 2 3 4 5
x 3
add to favorites
launch autoscroll
font size
0
reset
how to read this tab
guitar tuner
Autoscroll
slow
fast
+/-
esc
set tempo
stop
Help us to improve Ultimate-Guitar.com Take our survey!
×
#----------------------------------PLEASE NOTE----------------------------------#
# This file is the author's own work and represents their interpretation of the #
# song. You may only use this file for private study, scholarship, or research. #
#-------------------------------------------------------------------------------#

INTRO:
    C          Dm      G7     C           Dm     G7      C
e|-----0---------1-0----1-|---0--------0---1-0-----|---1-------0---------0--| 
b|-----1--1------3--------|---1--1---------3-------|-----------------1------|
g|-----0----0----2-----0--|---0----0-0-----2-------|-------------------0----|
d|------------------------|------------------------|-0----------------------| 
a|------------------------|------------------------|---------3--------------| 
e|------------------------|------------------------|------------------------|
Bass                                                                         
g|-------------------0----|----------------------0-|------------------------|
d|-------------0----------|--------------0-----0---|------------------------| 
a|--3--3------------------|-3----3-3---------------|-----3-------3-3--------| 
e|------------------------|------------------------|------------------------|
____________________________________________________________________________________

    Dm          C                          Dm         G7     Dm  The first time . . .
e|-----1-------1--------0-|-------0------------1---|----1----1--------------| 
b|-------------3----------|----1-1-1---------------|---0-----3--------------|
g|---2---------2------0---|-----0---0------2-------|--0------2--------------|
d|------------------------|------------------------|------------------------| 
a|------------------------|------------------------|------------------------| 
e|------------------------|------------------------|------------------------|
Bass                                                                         
g|----------0----0--------|------------------------|-0----------------------|
d|-0-----0---------0------|--------------0-------0-|------------------------| 
a|------------------------|-3-3--------------------|------3------3-3--------| 
e|------------------------|------------------------|------------------------|

The First Time Ever I Saw Your Face.

Dm            G        C            Am
The first time ever I saw your face
                               Em   F
I thought the sun rose in your eyes
                     C          
And the moon and the stars were the gifts you gave
       Bb           C
to the dark and the endless skies my love

to the dark and the endless skies



And the first time ever I kissed your mouth
I felt the earth move in my ha - a - nd,
like a trembling heart of a captive bird,
that was there at my command my love
that was there at my command my love

And the first time ever I lay with you
I felt your heart so close to mine
and I knew our joy would fill the earth
and last till the end of time my love
and it would last till the end of time my love

The first time ever I saw your face
your face
your fa - a - ce
your face

Tabbed : 07Jun04 by StanSo
____________________________________________________________________________________
Suggest correction
Give kudos to tab author, rate the tab!
1 2 3 4 5
comments
print report bad tab
1 comment total.
0 reply
StanSo 10 Jun 18, 2004 12:00 AM

I submitted this one before I registere but I have a few corrections as follows:
The First Time Ever I Saw Your Face Tab by Flack Roberta, www.Ultimate-Guitar.Com

#----------------------------------PLEASE NOTE----------------------------------#
# This file is the author's own work and represents their interpretation of the #
# song. You may only use this file for private study, scholarship, or research. #
#-------------------------------------------------------------------------------#

INTRO:
C Dm G7 C Dm G7 C
e|-----0---------1-0----1-|---0-------0----1-0-----|---1-------0---------0--|
b|-----1--1------3--------|---1--1---------3-------|-----------------1------|
g|-----0----0----2-----0--|---0----0-0-----2-------|-0-----------------0----|
d|------------------------|------------------------|------------------------|
a|------------------------|------------------------|---------3--------------|
e|------------------------|------------------------|------------------------|
Bass
g|-------------------0----|----------------------0-|------------------------|
d|-------------0----------|--------------0-----0---|------------------------|
a|--3--3------------------|-3----3-3---------------|-----3-------3-3--------|
e|------------------------|------------------------|------------------------|
____________________________________________________________________________________

Dm G7 C Dm G7 Dm The first time . . .
e|-----1-------1--------0-|-------0------------1---|----1----1--------------|
b|-------------0----------|----1-1-1---------------|---0-----3--------------|
g|---2---------0------0---|-----0---0------2-------|--0------2--------------|
d|------------------------|------------------------|------------------------|
a|------------------------|------------------------|------------------------|
e|------------------------|------------------------|------------------------|
Bass
g|----------0----0--------|------------------------|-0----------------------|
d|-0-----0----------------|--------------0-------0-|------0------0-0--------|
a|-----------------3------|-3-3--------------------|------------------------|
e|------------------------|------------------------|------------------------|

The First Time Ever I Saw Your Face.

Dm G C Am
The first time ever I saw your face
Em F
I thought the sun rose in your eyes
C
And the moon and the stars were the gifts you gave
Bb C
to the dark and the endless skies my love

to the dark and the endless skies



And the first time ever I kissed your mouth
I felt the earth move in my ha - a - nd,
like a trembling heart of a captive bird,
that was there at my command my love
that was there at my command my love

And the first time ever I lay with you
I felt your heart so close to mine
and I knew our joy would fill the earth
and last till the end of time my love
and it would last till the end of time my love

The first time ever I saw your face
your face
your fa - a - ce
your face

Tabbed : 07Jun04 by StanSo

guest
You may want to rate the tab now too:
select rating
Wanna post a correction for this tab? Suggest correction