Oops, an error
Loading. Please wait.

Where Is The Love Bass Tab

16 views 1 this week
no commentswrite comment
1 2 3 4 5
3 more votes to show rating
add to favorites
launch autoscroll
font size
0
reset
guitar tuner
Autoscroll
slow
fast
+/-
esc
set tempo
stop
Help us to improve Ultimate-Guitar.com Take our survey!
×
Author
Difficulty
novice
About this tab version
Their song peaked at number five on the Billboard Hot 100 in 1972. Was this info helpful? Yes No
          Where love      where  love     where   love       where  love
G|----------------|----------------|----------------|------------1---|
D|1-----------1---|----------------|------------1---|----------------|
A|----------------|1-----------4---|----------------|4---------------|
E|----------------|----------------|4---------------|----------------|

          Where love      where  love     where   love       where  love
G|----------------|----------------|----------------|------------1---|
D|1---------------|----------------|------------1---|----------------|
A|------------1---|1-----------1---|----------------|4---------------|
E|----------------|----------------|4---------------|----------------|

  [Verse] Where love        you     give  me         you         will
G|----------------|----------------|----------------|------------1---|
D|1---------------|----------------|------------1---|----------------|
A|------------1---|1---------------|----------------|4---------------|
E|----------------|------------4---|4---------------|----------------|

  ever  be                where  love
G|----------------|----------------|----------------|----------------|
D|4---------------|----------------|----------------|----------------|
A|------------3---|2-----------2---|1-----------1---|1-----------2---|
E|----------------|----------------|----------------|----------------|

  [Chorus]
G|----------------|----------------|----------------|----------------|
D|1---------------|4---------------|------------1---|----------------|
A|------------1---|------------4---|2---------------|1-----------1---|
E|----------------|----------------|----------------|----------------|

G|----------------|----------------|----------------|----------------|
D|1---------------|4---------------|----------------|----------------|
A|------------1---|------------1---|1-----------1---|1-----------1---|
E|----------------|----------------|----------------|----------------|

  [Verse]
G|----------------|----------------|----------------|------------1---|
D|1---------------|----------------|------------1---|----------------|
A|------------1---|1---------------|----------------|4---------------|
E|----------------|------------4---|4---------------|----------------|

G|----------------|----------------|----------------|----------------|
D|4---------------|----------------|----------------|----------------|
A|------------3---|2-----------2---|1-----------1---|1-----------2---|
E|----------------|----------------|----------------|----------------|

  [Chorus]
G|----------------|----------------|----------------|----------------|
D|1---------------|4---------------|------------1---|----------------|
A|------------1---|------------4---|2---------------|1-----------1---|
E|----------------|----------------|----------------|----------------|

G|----------------|----------------|----------------|----------------|
D|1---------------|4---------------|----------------|----------------|
A|------------1---|------------1---|1-----------1---|1-----------1---|
E|----------------|----------------|----------------|----------------|

G|----------------|
D|----------------|
A|1---------1-1---|
E|----------------|

  [Interlude] 
G|----------------|----------------|----------------|------------1---|
D|1---------------|----------------|------------1---|----------------|
A|------------1---|1---------------|----------------|4---------------|
E|----------------|------------1---|4---------------|----------------|

G|----------------|----------------|----------------|----------------|
D|4---------------|----------------|----------------|----------------|
A|------------1---|2-----------4---|1-----------1---|1---------1-1---|
E|----------------|----------------|----------------|----------------|

 [Chorus]
G|----------------|----------------|----------------|----------------|
D|1---------------|4---------------|------------1---|----------------|
A|------------1---|------------4---|2---------------|1-----------1---|
E|----------------|----------------|----------------|----------------|

G|----------------|----------------|----------------|----------------|
D|1---------------|4---------------|----------------|----------------|
A|------------1---|------------1---|1-----------1---|1-----------1---|
E|----------------|----------------|----------------|----------------|

G|----------------|----------------|
D|1---------------|----------------|
A|------------1---|1-----------1---|
E|----------------|----------------|

  [Outro] Where love      where  love     where   love       where  love
G|----------------|----------------|----------------|------------1---|
D|1-----------1---|----------------|------------1---|----------------|
A|----------------|1-----------4---|----------------|4---------------|
E|----------------|----------------|4---------------|----------------|

          Where love      where  love     where   love       where  love
G|----------------|----------------|----------------|------------1---|
D|1---------------|----------------|------------1---|----------------|
A|------------1---|1-----------1---|----------------|4---------------|
E|----------------|----------------|4---------------|----------------|

Keep repeating the above 8 bars.

This is a simplified version.
Suggest correction
Give kudos to tab author, rate the tab!
1 2 3 4 5
comments
print report bad tab
guest
You may want to rate the tab now too:
select rating
Wanna post a correction for this tab? Suggest correction