Oops, an error
Loading. Please wait.

Detalles tab

497 views 3 this week
no commentswrite comment
1 2 3 4 5
2 more votes to show rating
add to favorites
×
Save as Personal and add changes to this tab that will be seen only by you. Learn more ›
×
You can save this tab as Personal to edit and correct it or add notes. All changes will be seen only by you. Learn more »
launch autoscroll
font size
0
reset
how to read this tab
guitar tuner
edit
Autoscroll
slow
fast
+/-
esc
set tempo
stop
DETALLES: ROBERTO CARLOS

ESTOS SON MIS ARPEGEOS ESPERO Y LES GUSTE MI ESTILO. SUENA BIEN.

UNA SUGERENCIA. DESPUES DE CADA ESTROFA HAGAN UN RASGUEO Y AHOGUENLO
PARA QUE PUEDAN ENTRAR A LA SIGUIENTE ESTROFA

INTRO:

   A      Amaj7        A      Amaj7
1|-------0-------0---|-------0---------|
2|----2-------2------|----2-------2----|
3|-2-------1---------|-2-------1-----0-|
4|-----------------2-|-----------------|
5|-0-----------------|-0-------------1-|
6|---------0---------|---------0-------|

Estos son los arpegios que se repiten en toda la canción. No olviden que al
final de cada arpegio va el intro, con excepción de la última línea

     Bm            E7
1|-----------------|-----------------|   Este arpegio se repite dos veces
2|-3-----3-----3---|-0-----0-----0---|   en las dos primeras líneas de cada
3|-----4-----4---4-|-----1-----1---1-|   estrofa. Y al final va el arpegio
4|---4-----4-------|---0-----0-------|   intro
5|-2-----2---------|-2-----2---------|
6|-----------------|-----------------|

   Bm               E7
1|---------2-------|---------0-------|   Este arpegio se toca una vez en
2|-3-----3---3---3-|-0-----0---0---0-|   la tercera línea de cada estrofa
3|-----4-------4---|-----1-------1---|
4|---4-------------|---0-------------|
5|-2---------------|-2---------------|
6|-----------------|-----------------|

  Bm                      G
1|---------2-------|-----|---------3-------| Esta en la ultima
2|-3-----3---3-----|-----|-------3---3---3-| línea de cada
3|-----4-------4---|-----|-----4-------4---| estrofa
4|---4-----------4-|-----|---5-------------|
5|-2---------------|-2-0-|-----------------|
6|-----------------|-----|-3---------------|
                    /
                   /
 Este bajeo es para pasar de la nota Bm a G


   Bm                E7                A     Amaj7   A     Amaj7
1|-----------------|-----------------|-----0-----0-|-----0--------|
2|-3-----3-----3---|-0-----0-----0---|---2-----2---|---2-----2----|
3|-----4-----4---4-|-----1-----1---1-|-2-----1-----|-2-----1----0-|
4|---4-----4-------|---0-----0-------|-------------|--------------|
5|-2-----2---------|-2-----2---------|-0-----------|-0----------1-|
6|-----------------|-----------------|-------0-----|-------0------|
    No ganas al intentar              el olvidarme

   Bm                E7                A     Amaj7   A     Amaj7
1|-----------------|-----------------|-----0-----0-|-----0--------|
2|-3-----3-----3---|-0-----0-----0---|---2-----2---|---2-----2----|
3|-----4-----4---4-|-----1-----1---1-|-2-----1-----|-2-----1----0-|
4|---4-----4-------|---0-----0-------|-------------|--------------|
5|-2-----2---------|-2-----2---------|-0-----------|-0----------1-|
6|-----------------|-----------------|-------0-----|-------0------|
      durante mucho tiempo en tu vida yo voy a vivir,

   Bm                E7                 A     Amaj7   A     Amaj7
1|---------2-------|---------0-------|------0-----0-|-----0--------|
2|-3-----3---3---3-|-0-----0---0---0-|----2-----2---|---2-----2----|
3|-----4-------4---|-----1-------1---|--2-----1-----|-2-----1----0-|
4|---4-------------|---0-------------|--------------|--------------|
5|-2---------------|-2---------------|--0-----------|-0----------1-|
6|-----------------|-----------------|--------0-----|-------0------|
     detalles tan pequeños de los dos, son cosas muy grandes para olvidar

  Bm                      G                 E7
1|---------2-------|-----|---------3-------|---------0-------|
2|-3-----3---3-----|-----|-------3---3---3-|-0-----0---0---0-|
3|-----4-------4---|-----|-----4-------4---|-----1-------1---|
4|---4-----------4-|-----|---5-------------|---0-------------|
5|-2---------------|-2-0-|-----------------|-2---------------|
6|-----------------|-----|-3---------------|-----------------|
    y a todo hora van estar presentes       ya lo verás.


Bm                 E7      A Amaj7     A   Amaj7
   Si otro hombre apareciera por tu ruta
Bm                E7              A Amaj7          A   Amaj7
   y esto te trajese recuerdos mios la culpa es tuya,
Bm                E7              A Amaj7         A        Amaj7
   el ruido enloquecedor de su auto será la causa obligada o algo así,
Bm                            G  E7
   por eso inmediatamente tú vas a acordarte de mí.


Bm                 E7                A  Amaj7   A   Amaj7
   Yo sé que otro debe estar hablando a tu oído
Bm             E7              A  Amaj7   A   Amaj7
   palabras de amor como yo te hablé más yo dudo,
Bm                 E7              A     Amaj7       A      Amaj7
   yo dudo que él tenga tanto amor y hasta la forma de mi decir
Bm                   G  E7
   y en esa hora tú vas a acordarte de mí.


Bm                 E7                A  Amaj7      A   Amaj7
   En la noche, envuelta en el silencio de tu cuarto
Bm            E7           A Amaj7    A   Amaj7
   antes de dormir tú buscas mi retrato
Bm                         E7               A
   pero aún cuando no quisieras verme sonreír
   Amaj7              A       Amaj7
   tú ves mi sonrisa lo mismo así
Bm                           G   E7
   y todo eso va a hacer que tú te acuerdes de mí.


Bm                   E7                A   Amaj7      A   Amaj7
   Si alguien tocase tu cuerpo como yo, no digas nada,
Bm             E7                   A Amaj7          A   Amaj7
   no vayas a decir mi nombre sin querer a la persona errada,
Bm               E7              A
   pensando en el amor de ese momento
   Amaj7              A       Amaj7
   desesperada vas a intentar llegar al fin
Bm                           G    E7
   y hasta en ese momento tú irás a acordarte de mí.


Bm                     E7        A  Amaj7   A   Amaj7
   Yo sé que mientras existamos, recordaremos
Bm                    E7           A  Amaj7  A   Amaj7
   y que el tiempo transforma todo amor en casi nada,
Bm                E7                   A
   más casi yo me olvido de un gran detalle
     Amaj7         A       Amaj7
   un gran amor no va a morir así
Bm                           G       E7
   por eso, de vez en cuando tú vas, vas a acordarte de mí.


Bm                 E7         A  Amaj7   A   Amaj7
   No ganas nada con intentar el olvidarme
Bm              E7            A
   durante mucho tiempo en tu vida
   Amaj7      A   Amaj7
   yo voy a vivir ...


   Amaj7
e----0-----
B----2-----
G----1-----
D----2-----
A----0-----
E----0-----


DEDICADA A AQUELLOS AMORES Q NO SE OLVIDAN.

VALE LA PENA SACAR ESTA ROLA EN ARPEGEO SUENA MEJOR Y LE DA UN TOQUE
UNICO. SOLO HAY QUE AGARRARLE EL RITMO Y SABER CUANDO ENTRAR.

Alguna sugerencia comentario o duda haganmelo saber a mi correo
patoni_prc@

                       ***
                     *  *
::: (|_(| .. *....*  *   *
*: (=' :') :*....*     ** *
... (,(')(')¤...*..
Suggest correction
Creating personal tab
Creating personal tab
You can edit any tab online and save it as your Personal.

You can edit, replace or remove any tab part or add personal notes – all changes will be seen only by you.

Personal tabs can be accessed anytime from any device, even offline.
Learn more »
Give kudos to tab author, rate the tab!
1 2 3 4 5
comments
print report bad tab
guest
Wanna post a correction for this tab? Suggest correction