Oops, an error
Loading. Please wait.

Boom Kah bass

by Robin
91 views 1 this week
no commentswrite comment
1 2 3 4 5
3 more votes to show rating
add to favorites
×
Save as Personal and add changes to this tab that will be seen only by you. Learn more ›
×
You can save this tab as Personal to edit and correct it or add notes. All changes will be seen only by you. Learn more »
launch autoscroll
font size
0
reset
guitar tuner
edit
Autoscroll
slow
fast
+/-
esc
set tempo
stop
Author
Difficulty
About this tab version
Including lyrics and chords to make it easier to follow the tab. Was this info helpful? Yes No
[Verse 1]
   Em          C            G           D
G|------------------------|------------------------|
D|------------------------|------------------------|
A|-7--7--7--7--3--3--3--3-|-------------5--5--5--5-|  (x3)
E|------------------------|-3--3--3--3-------------|
     Elämä ... ohi kohta,     joten ... kotisohva
     Myöhemm...ehtii lepää, turha on enää stressii...
     Ihan ...  jäädä hyytyy   tai ...   päätä...

   Em          C            N.C.
G|------------------------|------------------------|
D|------------------------|------------------------|
A|-7--7--7--7--3--3--3--3-|------------------------|
E|------------------------|------------------------|
   Nyt mennään...koneet ... boom kah, boom boom kah


[Chorus]
      Em    C        G               D
   G|--------------|----------------------------|
   D|--------------|-5--------------------------|
   A|-7-----3------|-----------------5----------|  (x2)
   E|--------------|----------------------------|
      Ee -- i jäädä  himaan jumittaa
Joten he - ei tehään mitä   huvittaa

   Em            C              N.C.
G|----------------------------|------------------------|
D|----------------------------|------------------------|
A|-7-------------3------------|------------------------|  (x2)
E|----------------------------|------------------------|
   Missä nähään, mis on tänään  boom kah, boom boom kah
   Missä nähään, mis on tänään  boom kah, boom boom kah

   Em      C         G       D  
G|-----------------|-----------------|
D|-----------------|-5---------------|
A|-7-------3-------|---------5-------|  (x2)
E|-----------------|-----------------|


[Verse 2]
   Em          C            G           D
G|------------------------|------------------------|
D|------------------------|------------------------|
A|-7--7--7--7--3--3--3--3-|-------------5--5--5--5-|
E|------------------------|-3--3--3--3-------------|
   Hyvää ...   etsimässä    ja se voi...heti tässä

   Em          C            G     N.C.
G|------------------------|------------------------|
D|------------------------|-5--5-------------------|
A|-7--7--7--7--3--3--3--3-|------------------------|
E|------------------------|------------------------|
     Hyvät ... ässä hihas   joten boom kah tässä pihas

   Em          C            G           D
G|------------------------|------------------------|
D|------------------------|------------------------|
A|-7--7--7--7--3--3--3--3-|-------------5--5--5--5-|
E|------------------------|-3--3--3--3-------------|
     Voidaan...sinne tänne    tai ...   pidemmälle

   Em          C            N.C.
G|------------------------|------------------------|
D|------------------------|------------------------|
A|-7--7--7--7-------------|------------------------|
E|------------------------|------------------------|
   Nyt ...       koneet ... boom kah, boom boom kah


[Chorus]
      Em    C        G               D
   G|--------------|----------------------------|
   D|--------------|-5--------------------------|
   A|-7-----3------|-----------------5----------|  (x2)
   E|--------------|----------------------------|
      Ee -- i jäädä  himaan jumittaa
Joten he - ei tehään mitä   huvittaa

   Em            C              N.C.
G|----------------------------|------------------------|
D|----------------------------|------------------------|
A|-7-------------3------------|------------------------|  (x2)
E|----------------------------|------------------------|
   Missä nähään, mis on tänään  boom kah, boom boom kah
   Missä nähään, mis on tänään  boom kah, boom boom kah

   Em      C         G       D  
G|-----------------|-----------------|
D|-----------------|-5---------------|
A|-7-------3-------|---------5-------|
E|-----------------|-----------------|

   Em      C         G         D
G|-----------------|-----------------------|
D|-----------------|-5---------------------|
A|-7-------3-------|-----------5-----------|
E|-----------------|-----------------------|
                   (boom kah, boom boom kah)


[Verse 3]
               Em        C               G           D
G|-----------|-------------------------|------------------------|
D|-(no-bass)-|-------------------------|------------------------|
A|-----------|-7--7---7--3---3-------3-|-------------5--5--5--5-|
E|-----------|-------------------------|-3--3--3--3-------------|
  (rap verse) (He -- ei) Robineri huuda    tul - ta,  tul-tul-ta

   Em                C             N.C.
G|-------------------------------|------------------------|
D|-------------------------------|------------------------|
A|-7----7--7----7--7----3-----3--|------------------------|
E|-------------------------------|------------------------|
  (He  - ee -  ei)   se on kuumaa  boom kah, boom boom kah


[Chorus]
      Em    C        G               D
   G|--------------|----------------------------|
   D|--------------|-5--------------------------|
   A|-7-----3------|-----------------5----------|  (x2)
   E|--------------|----------------------------|
      Ee -- i jäädä  himaan jumittaa
Joten he - ei tehään mitä   huvittaa

   Em            C              N.C.
G|----------------------------|------------------------|
D|----------------------------|------------------------|
A|-7-------------3------------|------------------------|  (x2)
E|----------------------------|------------------------|
   Missä nähään, mis on tänään  boom kah, boom boom kah
   Missä nähään, mis on tänään  boom kah, boom boom kah

      Em    C        G               D
   G|--------------|----------------------------|
   D|--------------|-5--------------------------|
   A|-7-----3------|-----------------5----------|  (x2)
   E|--------------|----------------------------|
      Ee -- i jäädä  himaan jumittaa
Joten he - ei tehään mitä   huvittaa

   Em            C              N.C.
G|----------------------------|------------------------|
D|----------------------------|------------------------|
A|-7-------------3------------|------------------------|  (x2)
E|----------------------------|------------------------|
   Missä nähään, mis on tänään  boom kah, boom boom kah
   Missä nähään, mis on tänään  boom kah, boom boom kah

   Em      C         G       D  
G|-----------------|-----------------|
D|-----------------|-5---------------|
A|-7-------3-------|---------5-------|  (x3)
E|-----------------|-----------------|

   Em      C              N.C.
G|-----------------|------------------------|
D|-----------------|------------------------|
A|-7-------3-------|------------------------|
E|-----------------|------------------------|
                    boom kah, boom boom kah

            
            
Suggest correction
Creating personal tab
Creating personal tab
You can edit any tab online and save it as your Personal.

You can edit, replace or remove any tab part or add personal notes – all changes will be seen only by you.

Personal tabs can be accessed anytime from any device, even offline.
Learn more »
Give kudos to tab author, rate the tab!
1 2 3 4 5
comments
print report bad tab
guest
You may want to rate the tab now too:
select rating
Wanna post a correction for this tab? Suggest correction