Oops, an error
Loading. Please wait.

Frontside Ollie bass

by Robin
58 views 1 this week
2 commentsread comments
1 2 3 4 5
3 more votes to show rating
add to favorites
×
Save as Personal and add changes to this tab that will be seen only by you. Learn more ›
×
You can save this tab as Personal to edit and correct it or add notes. All changes will be seen only by you. Learn more »
launch autoscroll
font size
0
reset
guitar tuner
edit
Autoscroll
slow
fast
+/-
esc
set tempo
stop
Author
Difficulty
About this tab version
Including chords and lyrics to make it easier to follow the tab. Was this info helpful? Yes No
[Intro]
   G#m              E                B                F#
G|---------------------------------|-------------------------------------|
D|---------------------------------|-----------------------------------4-|
A|---------------------------------|-2----2-------2----------------------|   (x2)
E|-4----4-------4---0----0-------0-|------------------2----2-------2-----|


[Verse 1]
       G#m              E                B                F#
    G|---------------------------------|-------------------------------------|
    D|---------------------------------|-------------------------------------|
    A|---------------------------------|-2----2-------2----------------------|   (x4)
    E|-4----4-------4---0----0---------|------------------2----2-------------|
       Tommi  ja  mä   kaupungilla taas  illat  rullail - laan
  Kevätillassa,        kauniissa         äänet  kaikuu    taas
    Ei huolia,   ei    murheita,   ei    kiire    mihin - kään
Sitten pari ... siihen ilmestyy    ja    sekoittaa Tommin pään

    G#m              E                B               F#/A#
 G|---------------------------------|-------------------------------------|
 D|---------------------------------|-------------------------------------|
 A|---------------------------------|-2----------------1------------------|
 E|-4----------------0--------------|-------------------------------------|
Hei laa -- aa - a - inaa              kundi   sun   lautaa


[Chorus]
   G#m             E                 B               F#
G|--------------------------------|--------------------------------|
D|--------------------------------|--------------------------------|
A|--------------------------------|--2---2---2---2-----------------|   (x4)
E|-4---4---4---4---0---0---0---0--|------------------2---2---2---2-|
      Mä silmiäni  usko   en        kun  se  tyttö  teki sen  
      Täy - del - lisen             front - side    ollien
      Mä sivuosaan pelkkään   jäin      kun se veti yllättäin
      Täy - del - lisen             front - side    ollien

   G#m              E          B               F#
G|---------------------------|--------------------------|
D|---------------------------|--------------------------|
A|---------------------------|-2---2-------2------------|   (x2)
E|-4----4-------4---0----0---|-----------------2----2---|
      Woo  ---  --  oo - o     frontside      ollien
      Woo  ---  --  oo - o


[Verse 2]
      G#m              E                B                F#
   G|---------------------------------|-------------------------------------|
   D|---------------------------------|-------------------------------------|
   A|---------------------------------|-2----2-------2----------------------|   (x4)
   E|-4----4-------4---0----0---------|------------------2----2-------------|
      Tommi ja mä sen jutun jälkeen     harvoin   koodaillaan
   Ei soittele  enää  mulle se,  et     lähetään skeittaamaan
 Olis makeeta   taas  rampeilla         pistää      parastaan
Mutta Tommia      ei  kiinnosta  kun se seurustelee   vaan

    G#m              E                B               F#/A#
 G|---------------------------------|-------------------------------------|
 D|---------------------------------|-------------------------------------|
 A|---------------------------------|-2----------------1------------------|
 E|-4----------------0--------------|-------------------------------------|
Hei laa -- aa - a - inaa              kundi   sun   lautaa


[Chorus]
   G#m             E                 B               F#
G|--------------------------------|--------------------------------|
D|--------------------------------|--------------------------------|
A|--------------------------------|--2---2---2---2-----------------|   (x4)
E|-4---4---4---4---0---0---0---0--|------------------2---2---2---2-|
      Mä silmiäni  usko   en        kun  se  tyttö  teki sen  
      Täy - del - lisen             front - side    ollien
      Mä sivuosaan pelkkään   jäin      kun se veti yllättäin
      Täy - del - lisen             front - side    ollien

   G#m              E          B               F#
G|---------------------------|--------------------------|
D|---------------------------|--------------------------|
A|---------------------------|-2---2-------2------------|   (x2)
E|-4----4-------4---0----0---|-----------------2----2---|
      Woo  ---  --  oo - o     frontside      ollien
      Woo  ---  --  oo - o     frontside      ollien


[Bridge]
   E                                F#
G|--------------------------------|---------------------------------|
D|--------------------------------|---------------------------------|
A|--------------------------------|---------------------------------|   (x2)
E|-0---0---0---0---0---0---0---0--|--2---2---2---2---2---2---2---2--|
      Parin viikon jälkeen tyttö    Tommin unohtaa
      Mä  skeittaankin  jo  sen     isosiskon kaa


[Chorus]
   G#m             E                 B               F#
G|--------------------------------|--------------------------------|
D|--------------------------------|--------------------------------|
A|--------------------------------|--2---2---2---2-----------------|   (x8)
E|-4---4---4---4---0---0---0---0--|------------------2---2---2---2-|
      Mä silmiäni  usko   en        kun  se  tyttö  teki sen  
      Täy - del - lisen             front - side    ollien
      Sivuosaan    Tommi  jäi          se sisko veti yllättäin
      Täy - del - lisen             front - side    ollien
      Mä silmiäni  usko   en        kun  se  tyttö  teki sen  
      Täy - del - lisen             front - side    ollien
      Sivuosaan    Tommi  jäi          se sisko veti yllättäin
      Täy - del - lisen             front - side    ollien


[Outro]
   G#m              E          B               F#
G|---------------------------|--------------------------|
D|---------------------------|--------------------------|
A|---------------------------|-2---2-------2------------|
E|-4----4-------4---0----0---|-----------------2----2---|
      Woo  ---  --  oo - o     frontside      ollien

   G#m              E          N.C.
G|---------------------------|--------------------------|
D|---------------------------|--------------------------|
A|---------------------------|--------------------------|
E|-4----4-------4---0----0---|--------------------------|
      Woo  ---  --  oo - o     frontside ollien
Suggest correction
Creating personal tab
Creating personal tab
You can edit any tab online and save it as your Personal.

You can edit, replace or remove any tab part or add personal notes – all changes will be seen only by you.

Personal tabs can be accessed anytime from any device, even offline.
Learn more »
Give kudos to tab author, rate the tab!
1 2 3 4 5
comments
print report bad tab
2 comments total.
0 reply
Ybatec 163 Apr 05, 2017 04:29 PM

I just don't like it, no special reason

guest
You may want to rate the tab now too:
select rating
Wanna post a correction for this tab? Suggest correction