Oops, an error
Loading. Please wait.

Miten Eskimot Suutelee tab

by Robin ft. Sanni
76 views 18 this week
no commentswrite comment
1 2 3 4 5
3 more votes to show rating
add to favorites
×
Save as Personal and add changes to this tab that will be seen only by you. Learn more ›
×
You can save this tab as Personal to edit and correct it or add notes. All changes will be seen only by you. Learn more »
launch autoscroll
font size
0
reset
how to read this tab
guitar tuner
edit
Autoscroll
slow
fast
+/-
esc
set tempo
stop
About this tab version
Whole song with chords and lyrics. Was this info helpful? Yes No
[Intro]
   1 + 2 + 3 + 4 +   1 + 2 + 3 + 4 +   1 + 2 + 3 + 4 +   1 + 2 + 3 + 4 +
   Am            G                     Em            F
e|-----------------|-----------------|-----------------|-----------------|
B|-3h5---3h5-------|-----------------|-3h5---3h5-------|-----------------|
G|-----------------|-----------------|-----------------|-----------------|
D|-----------------|-----------------|-----------------|-----------------|
A|-----------------|-----------------|-----------------|-----------------|
E|-----------------|-----------------|-----------------|-----------------|
                                                                  1. Sä oot

[Verse 1] (soinnut tai N.C.)
Am              G             Em   F
söpö silloin kun et itsekään tiedä
Am           G                     Em   F
Että jokainen haluis sut kotiinsa viedä
      Am                G
Mäkin oon viime aikoina mennyt säätämään
       Em             F
Turhii juttuja eikä mitään merkittävää
      Am                G
Mutta mun kanssa sun ei tarvitse kelata
   Em               F
Et haluisin sulla pelata


[Pre-Chorus]
   1    2    3   4   1    2    3   4   1    2    3   4   1    2    3   4
   Am                G                 Em                F
e|-0---------------|-3---------------|-0---------------|-1---------------|
B|-1---------------|-0---------------|-0---------------|-1---------------|
G|-2---------------|-0---------------|-0---------------|-2---------------|
D|-2---------------|-0---------------|-2---------------|-3---------------|  (x3)
A|-0---------------|-2---------------|-2---------------|-3---------------|
E|-----------------|-3---------------|-0---------------|-1---------------|
   Kietoo sormen --- päät mun pikkusormeen
   Vaikka mieli      sun iholla harhailee
 Mennään sun rytmissä ei tarvi pelätä  meil ei oo kiirettä ä ä

   1    2    3   4   1    2    3   4   1    2    3   4   1    2    3   4
   Am                G                 Em                N.C.
e|-0---------------|-3---------------|-0---------------|-----------------|
B|-1---------------|-0---------------|-0---------------|-----------------|
G|-2---------------|-0---------------|-0---------------|-----------------|
D|-2---------------|-0---------------|-2---------------|-----------------|
A|-0---------------|-2---------------|-2---------------|-----------------|
E|-----------------|-3---------------|-0---------------|-----------------|
   Näytän sulle     miten eskimot suutelee                  Ne tekee sen ne-


[Chorus]
   1      2      3       4      1      2     3      4    1      2      3       4      1     2    3     4
   N.C.                                                                                                  (x3)
e|----------------------------|------------------------|----------------------------|-----------------------|
B|----------------------------|------------------------|----------------------------|-----------------------|
G|----------------------------|------------------------|----------------------------|-----------------------|
D|----------------------------|------------------------|----------------------------|-----------------------|
A|----------------------------|------------------------|----------------------------|-----------------------|
E|-5-5--5-5--5-5---4--4--3--3-|--------------0------0--|-5-5--5-5--5-5---4--4--3--3-|------------0-----0----|
  -nällä                                                                                      Ne tekee sen ne
  -nällä                                                                                      Ne tekee sen ne
  -nällä                                                                                      Ne tekee sen ne

   1   2   3   4
   N.C.
e|---------------|
B|---------------|
G|---------------|
D|---------------|
A|---------------|
E|---------------|
  -nällä   2. Lähe


[Verse 2] (soinnut tai N.C.)
Am             G             Em  F
kävelee mun kaa Aurajoen rantaan


   1  +  2  +  3  +  4  +   1     2    3    4    1 +  2 +  3 +  4  +   1   2   3   4  
   Am                   G                        Em                F
e|-0--------------------3-|--------------------|-0-----------------1-|---------------|
B|-1--------------------0-|--------------------|-0-----------------1-|---------------|
G|-2--------------------0-|--------------------|-0-----------------2-|---------------|
D|-2--------------------0-|--------------------|-2-----------------3-|---------------|  (x2)
A|-0--------------------2-|--------------------|-2-----------------3-|---------------|
E|----------------------3-|--------------------|-0-----------------1-|---------------|
En haluu sulta viedä               mä haluun an-taa ------------- aa          Sillon
   kun mua paleltaa eikä   oo lämmitystä sä tuut hohkaamaan lämpöä ja jännitystä


(soinnut tai N.C.)
    Am                G
Kun sulla on kylmä ja hengitys höyryää
      Em               F
Annan hupparin lämmittämään


   1 + 2 + 3 + 4 +  1 + 2 + 3 + 4 +  1 + 2 + 3 + 4 +  1 + 2 + 3 + 4 +  
   Am
e|---------0------|---------0------|---------0------|---------0-------|
B|---------1------|---------1------|---------1------|---------1-------|
G|---------2------|---------2------|---------2------|---------2-------|
D|----------------|----------------|----------------|-----------------|
A|-0--------------|-0--------------|-0--------------|-0---------------|
E|----------------|----------------|----------------|-----------------|
                                                                 Täs on

[Bridge]
   1  +  2  +  3  +  4  +   1  +  2  +  3   +  4  +   1  +  2  +  3  +  4  +   1  +  2  +  3  +  4  +  
   Am
e|-------------0----------|-------------0-----------|-------------0----------|-------------0----------|
B|-------------1----------|-------------1-----------|-------------1----------|-------------1----------|
G|-------------2----------|-------------2-----------|-------------2----------|-------------2----------|
D|------------------------|-------------------------|------------------------|------------------------|
A|-0----------------------|-0-----------------------|-0----------------------|-0----------------------|
E|------------------------|-------------------------|------------------------|------------------------|
   ollu           vähän   kai-ken-lais-ta,    ei voi  tie-tää    tykkääks    ellei   mais-ta     Mä oon

   1  +  2  +  3  +  4  +   1  +  2  +  3   +  4  +   1  +  2  +  3  +  4  +   1  +  2  +  3  +  4  +  
   Em                                                 F
e|------------------------|-------------------------|------------------------|------------------------|
B|-------------0----------|-------------0-----------|-------------1----------|-------------1----------|
G|-------------0----------|-------------0-----------|-------------2----------|-------------2----------|
D|-------------2----------|-------------2-----------|-------------3----------|-------------3----------|
A|------------------------|-------------------------|------------------------|------------------------|
E|-0----------------------|-0-----------------------|-1----------------------|-1----------------------|
   rikki          mut en  tarvi      tikkii           suljen  ve-kit  syl-ke-mällä     mikkiin

   1  +  2  +  3  +  4  +   1  +  2  +  3   +  4  +   1  +  2  +  3  +  4  +   1  +  2  +  3  +  4  +  
   Am
e|-------------0----------|-------------0-----------|-------------0----------|-------------0----------|
B|-------------1----------|-------------1-----------|-------------1----------|-------------1----------|
G|-------------2----------|-------------2-----------|-------------2----------|-------------2----------|
D|------------------------|-------------------------|------------------------|------------------------|
A|-0----------------------|-0-----------------------|-0----------------------|-0----------------------|
E|------------------------|-------------------------|------------------------|------------------------|
          Aurajoen  ranta     on kaunis keväällä        saatat mut kotiin         kohta on pimeä

   1  +  2  +  3  +  4  +   1  +  2  +  3   +  4  +   1  +  2  +  3  +  4  +   1  +  2  +  3  +  4  +  
   Em                                                 F
e|------------------------|-------------------------|------------------------|------------------------|
B|-------------0----------|-------------0-----------|-------------1----------|-------------1----------|
G|-------------0----------|-------------0-----------|-------------2----------|-------------2----------|
D|-------------2----------|-------------2-----------|-------------3----------|-------------3----------|
A|------------------------|-------------------------|------------------------|------------------------|
E|-0----------------------|-0-----------------------|-1----------------------|-1----------------------|
      Väsätään leipii, kuunnellaan Weekendiä                         enkä mä   osaa  sua  pelätä

   1  +  2  +
   N.C.
e|------------|
B|------------|
G|------------|
D|------------|
A|------------|
E|------------|


[Pre-Chorus]
   1    2    3   4   1    2    3   4   1    2    3   4   1    2    3   4
   Am                G                 Em                F
e|-0---------------|-3---------------|-0---------------|-1---------------|
B|-1---------------|-0---------------|-0---------------|-1---------------|
G|-2---------------|-0---------------|-0---------------|-2---------------|
D|-2---------------|-0---------------|-2---------------|-3---------------|  (x3)
A|-0---------------|-2---------------|-2---------------|-3---------------|
E|-----------------|-3---------------|-0---------------|-1---------------|
   Kietoo sormen --- päät mun pikkusormeen
   Vaikka mieli      sun iholla harhailee
 Mennään sun rytmissä ei tarvi pelätä  meil ei oo kiirettä ä ä

   1    2    3   4   1    2    3   4   1    2    3   4   1    2    3   4
   Am                G                 Em                N.C.
e|-0---------------|-3---------------|-0---------------|-----------------|
B|-1---------------|-0---------------|-0---------------|-----------------|
G|-2---------------|-0---------------|-0---------------|-----------------|
D|-2---------------|-0---------------|-2---------------|-----------------|
A|-0---------------|-2---------------|-2---------------|-----------------|
E|-----------------|-3---------------|-0---------------|-----------------|
   Näytän sulle     miten eskimot suutelee                  Ne tekee sen ne-


[Chorus]
   1      2      3       4      1      2     3      4    1      2      3       4      1     2     3     4
   N.C.                           
e|----------------------------|------------------------|----------------------------|-----------------------|
B|----------------------------|------------------------|----------------------------|-----------------------|
G|----------------------------|------------------------|----------------------------|-----------------------|
D|----------------------------|------------------------|----------------------------|-----------------------|
A|----------------------------|------------------------|----------------------------|-----------------------|
E|-5-5--5-5--5-5---4--4--3--3-|--------------0------0--|-5-5--5-5--5-5---4--4--3--3-|-------------0------0--|
  -nällä                                                                                      Ne tekee sen ne

   1      2      3       4      1      2     3      4    1      2      3       4      1  2  3   +   4   +
e|----------------------------|------------------------|----------------------------|-----------------------|
B|----------------------------|------------------------|----------------------------|-----------------------|
G|----------------------------|------------------------|----------------------------|-----------------------|
D|----------------------------|------------------------|----------------------------|-----------------------|
A|----------------------------|------------------------|----------------------------|-----------------------|
E|-5-5--5-5--5-5---4--4--3--3-|--------------0------0--|-5-5--5-5--5-5---4--4--3--3-|-------0-0-0-0-0-0-0-0-|
  -nällä


[Outro]
   1      2      3       4      1     2     3     4    1      2      3       4      1     2     3     4
   N.C.
e|----------------------------|----------------------|----------------------------|----------------------|
B|----------------------------|----------------------|----------------------------|----------------------|
G|----------------------------|----------------------|----------------------------|----------------------|
D|----------------------------|----------------------|----------------------------|-----5----5-----------|(x3)
A|----------------------------|-----5----5-----------|----------------------------|----------------------|
E|-5-5--5-5--5-5---4--4--3--3-|---3----3----0-----0--|-5-5--5-5--5-5---4--4--3--3-|---3----3----0-----0--|
   Edes takas,    edes  takas   uudestaan              edes takas,        edes  takas
   Edes takas,    edes  takas   uudestaan              edes takas,        edes  takas        Ne tekee sen ne
-nällä..takas,    edes  takas   uudestaan              edes takas,        edes  takas        Ne tekee sen ne

   1      2      3       4      1     2     3     4    1      2      3       4      1     2     3     4
   N.C.
e|----------------------------|----------------------|----------------------------|----------------------|
B|----------------------------|----------------------|----------------------------|----------------------|
G|----------------------------|----------------------|----------------------------|----------------------|
D|----------------------------|----------------------|----------------------------|-----5----5-----------|
A|----------------------------|-----5----5-----------|----------------------------|----------------------|
E|-5-5--5-5--5-5---4--4--3--3-|---3----3----0-----0--|-5-5--5-5--5-5---4--4--3--3-|---3----3-------------|
-nällä..takas,    edes  takas   uudestaan              edes takas,        edes  takas          suudellaan


************************************

| h   Hammer-on

            
            
Suggest correction
Creating personal tab
Creating personal tab
You can edit any tab online and save it as your Personal.

You can edit, replace or remove any tab part or add personal notes – all changes will be seen only by you.

Personal tabs can be accessed anytime from any device, even offline.
Learn more »
Give kudos to tab author, rate the tab!
1 2 3 4 5
comments
print report bad tab
guest
You may want to rate the tab now too:
select rating
Wanna post a correction for this tab? Suggest correction