Oops, an error
Loading. Please wait.

Puuttuva Palanen bass

by Robin
88 views 3 this week
no commentswrite comment
1 2 3 4 5
3 more votes to show rating
add to favorites
×
Save as Personal and add changes to this tab that will be seen only by you. Learn more ›
×
You can save this tab as Personal to edit and correct it or add notes. All changes will be seen only by you. Learn more »
launch autoscroll
font size
0
reset
guitar tuner
edit
Autoscroll
slow
fast
+/-
esc
set tempo
stop
Author
Difficulty
About this tab version
Including lyrics and chords to make it easier to follow the tab. Was this info helpful? Yes No
Ei bassoa introssa eikä kahdeksassa ensimmäisessä tahdissa A-osassa. Sanat mukana, jotta helpompi seurata.


[Verse 1]
               D                A                     Bm            G
G|-----------|-7--------------|---------------------|-------------|-----------------|
D|-(no-bass)-|----------------|-7-------------------|-9-----------|-5---------------|
A|-----------|----------------|---------------------|-------------|-----------------|
E|-----------|----------------|---------------------|-------------|-----------------|
       ... Tää tuntuu helpolta,   just niin kuin ois tunnettu aina


[Chorus]
        D                A                   Bm                    G
     G|----------------|-------------------|---------------------|-------------------|
     D|----------------|-------------------|---------------------|-------------------|
     A|-5-----5------5-|-------------------|-2-----------2-----2-|-------------------|   (x3)
     E|----------------|-5---5-------------|---------------------|-3----3------------|
    Mun sy-sy-sydämestä  puuttuu palanen ja  uu uu se on sun näköi-nen
    Mun sy-sy-sydämestä  puuttuu palanen ja  uu uu sä voisit täyt..sen
Oot mun puuttuva...                      mun puuttuva  pala - nen...


[Verse 2]
               D                A                     Bm            G
G|-----------|-7--------------|---------------------|-------------|-----------------|
D|-(no-bass)-|----------------|-7-------------------|-9-----------|-5---------------|
A|-----------|----------------|---------------------|-------------|-----------------|
E|-----------|----------------|---------------------|-------------|-----------------|
       ... Tää tuntuu helpolta,   just niin kuin ois tunnettu aina


[Chorus]
        D                A                   Bm                    G
     G|----------------|-------------------|---------------------|-------------------|
     D|----------------|-------------------|---------------------|-------------------|
     A|-5-----5------5-|-------------------|-2-----------2-----2-|-------------------|   (x3)
     E|----------------|-5---5-------------|---------------------|-3----3------------|
    Mun sy-sy-sydämestä  puuttuu palanen ja  uu uu se on sun näköi-nen
    Mun sy-sy-sydämestä  puuttuu palanen ja  uu uu sä voisit täyt..sen
Oot mun puuttuva...                      mun puuttuva  pala - nen...


[Verse 3]
               D                A/C#                  Bm            G/B
G|-----------|-7--------------|---------------------|-------------|-----------------|
D|-(no-bass)-|----------------|-7-------------------|-9-----------|-5---------------|
A|-----------|----------------|---------------------|-------------|-----------------|
E|-----------|----------------|---------------------|-------------|-----------------|
           ... lippa takana ... rytmi oli ...         niin ku ...   teki vaan ...

   D                A/C#                  Bm            G
G|-7--------------|---------------------|-------------|-----------------|
D|----------------|-7-------------------|-9-----------|-5---------------|
A|----------------|---------------------|-------------|-----------------|
E|----------------|---------------------|-------------|-----------------|
   Mut sit se... ja vei mun sydämestä ... luulin ... mä tiiän edelleenki...


[Chorus]
        E                B                   C#m                   A
     G|----------------|-------------------|---------------------|-------------------|
     D|-2-----2------2-|-------------------|---------------------|-------------------|
     A|----------------|-2---2-------------|-4-----------4-----4-|-0----0------------|   (x5)
     E|----------------|-------------------|---------------------|-------------------|
    Mun sy-sy-sydämestä  puuttuu palanen ja  uu uu se on sun näköi-nen
    Mun sy-sy-sydämestä  puuttuu palanen ja  uu uu sä voisit täyt..sen
Oot mun puuttuva...                      mun puuttuva  pala - nen...
    Mun sy-sy-sydämestä  puuttuu palanen ja  uu uu se on sun näköi-nen
    Mun sy-sy-sydämestä  puuttuu palanen ja  uu uu sä voisit täyt..sen


[Outro]
   E                 B            C#m               A
G|-----------------|------------|-----------------|-------------|
D|-2----------2--2-|------------|-----------------|-------------|
A|-----------------|-2---2------|-4----------4--4-|-0----0------|
E|-----------------|------------|-----------------|-------------|
   Puuttuva palanen....           Puuttuva palanen....

            
            
Suggest correction
Creating personal tab
Creating personal tab
You can edit any tab online and save it as your Personal.

You can edit, replace or remove any tab part or add personal notes – all changes will be seen only by you.

Personal tabs can be accessed anytime from any device, even offline.
Learn more »
Give kudos to tab author, rate the tab!
1 2 3 4 5
comments
print report bad tab
guest
You may want to rate the tab now too:
select rating
Wanna post a correction for this tab? Suggest correction