Oops, an error
Loading. Please wait.

Puuttuva Palanen tab

by Robin
58 views 6 this week
no commentswrite comment
1 2 3 4 5
3 more votes to show rating
add to favorites
×
Save as Personal and add changes to this tab that will be seen only by you. Learn more ›
×
You can save this tab as Personal to edit and correct it or add notes. All changes will be seen only by you. Learn more »
launch autoscroll
font size
0
reset
how to read this tab
guitar tuner
edit
Autoscroll
slow
fast
+/-
esc
set tempo
stop
About this tab version
Easy to follow, lyrics included. Was this info helpful? Yes No
[Intro]
   1  +  2  +  3  +  4  +   1  +  2  +  3  +  4  +
   D5
e|-5--5--5--5--5--5--5--5-|-5--5--5--5--5--5--5--5-|
B|-3--3--3--3--3--3--3--3-|-3--3--3--3--3--3--3--5-|
G|------------------------|------------------------|
D|------------------------|------------------------|
A|------------------------|------------------------|
E|------------------------|------------------------|


[Verse 1]
   1  +  2  +  3  +  4  +   1  +  2  +  3  +  4  +   1  +  2  +  3  +  4  +   1  +  2  +  3  +  4  +
   D                        A/C#                     Bm                       G
e|-5--5--5--5--5--5--5--5-|-5--5--5--5--5--5--5--5-|-2--2--2--2--2--2--2--2-|-3--3--3--3--3--3--3--3-|
B|-3--3--3--3--3--3--3--3-|-2--2--2--2--2--2--2--2-|-0--0--0--0--0--0--0--0-|-0--0--0--0--0--0--0--0-|
G|------------------------|------------------------|------------------------|------------------------|
D|------------------------|------------------------|------------------------|------------------------|  (x3)
A|------------------------|------------------------|------------------------|------------------------|
E|------------------------|------------------------|------------------------|------------------------|
         Katot muhun        ja    mä    hajoon suhun       koulun viereisellä kis - kal - la
         Heti  tajuun       et -  tä    oot mun makuun     samat bändit tykkäyslis -tal - la       Tää
   tun - tuu helpol - ta           just niin kuin ois tun -net - tu ai -- na                       Mun


[Chorus]
   1  +  2  +  3  +  4  +   1  +  2  +  3  +  4  +   1  +  2  +  3  +  4  +   1  +  2  +  3  +  4  +
   D                        A                        Bm                       G
e|-5--5--5--5--5--5--5--5-|-5--5--5--5--5--5--5--5-|-2--2--2--2--2--2--2--2-|-3--3--3--3--3--3--3--3-|
B|-3--3--3--3--3--3--3--3-|-2--2--2--2--2--2--2--2-|-0--0--0--0--0--0--0--0-|-0--0--0--0--0--0--0--0-|
G|------------------------|------------------------|------------------------|------------------------|
D|------------------------|------------------------|------------------------|------------------------|  (x3)
A|------------------------|------------------------|------------------------|------------------------|
E|------------------------|------------------------|------------------------|------------------------|
   sy  - sy  - sydämestä    puut-tuu    pa-lanen ja  uu    uu se on sun näköinen                  Mun
   sy  - sy  - sydämestä    puut-tuu    pa-lanen ja  uu    uu sä voisit täyttää sen             Oot mun
   puut-tu-va  pa-la -- nen                     mun  puut-tu-va  pa-la -- nen


[Verse 2]
   1  +  2  +  3  +  4  +   1  +  2  +  3  +  4  +   1  +  2  +  3  +  4  +   1  +  2  +  3  +  4  +
   D                        A/C#                     Bm                       G
e|-5--5--5--5--5--5--5--5-|-5--5--5--5--5--5--5--5-|-2--2--2--2--2--2--2--2-|-3--3--3--3--3--3--3--3-|
B|-3--3--3--3--3--3--3--3-|-2--2--2--2--2--2--2--2-|-0--0--0--0--0--0--0--0-|-0--0--0--0--0--0--0--0-|
G|------------------------|------------------------|------------------------|------------------------|
D|------------------------|------------------------|------------------------|------------------------|  (x3)
A|------------------------|------------------------|------------------------|------------------------|
E|------------------------|------------------------|------------------------|------------------------|
      Tyhmätkin jutut       nau - rat - taa kun puhut   en sanakirjaa suhun   tar - vit - se
         Mä voin relaa      ei    mun   tarvii kelaa,   en turhaan läppiäni   har - kit - se       Tää
   tun - tuu helpol - ta           just niin kuin ois tun -net - tu ai -- na                       Mun


[Chorus]
   1  +  2  +  3  +  4  +   1  +  2  +  3  +  4  +   1  +  2  +  3  +  4  +   1  +  2  +  3  +  4  +
   D                        A                        Bm                       G
e|-5--5--5--5--5--5--5--5-|-5--5--5--5--5--5--5--5-|-2--2--2--2--2--2--2--2-|-3--3--3--3--3--3--3--3-|
B|-3--3--3--3--3--3--3--3-|-2--2--2--2--2--2--2--2-|-0--0--0--0--0--0--0--0-|-0--0--0--0--0--0--0--0-|
G|------------------------|------------------------|------------------------|------------------------|
D|------------------------|------------------------|------------------------|------------------------|  (x3)
A|------------------------|------------------------|------------------------|------------------------|
E|------------------------|------------------------|------------------------|------------------------|
   sy  - sy  - sydämestä    puut-tuu    pa-lanen ja  uu    uu se on sun näköinen                  Mun
   sy  - sy  - sydämestä    puut-tuu    pa-lanen ja  uu    uu sä voisit täyttää sen             Oot mun
   puut-tu-va  pa-la -- nen                     mun  puut-tu-va  pa-la -- nen         (Robin, brädi, c'mon)


[Rap Verse]
   1  +  2  +  3  +  4  +   1  +  2  +  3  +  4  +   1  +  2  +  3  +  4  +   1  +  2  +  3  +  4  +
   D                        A/C#                     Bm                       G/B
e|-5--5--5--5--5--5--5--5-|-5--5--5--5--5--5--5--5-|-2--2--2--2--2--2--2--2-|-3--3--3--3--3--3--3--3-|
B|-3--3--3--3--3--3--3--3-|-2--2--2--2--2--2--2--2-|-0--0--0--0--0--0--0--0-|-0--0--0--0--0--0--0--0-|
G|------------------------|------------------------|------------------------|------------------------|
D|------------------------|------------------------|------------------------|------------------------|  (x3)
A|------------------------|------------------------|------------------------|------------------------|
E|------------------------|------------------------|------------------------|------------------------|
   Joo mä muistan ...       Brädikin on ollu ...     ku se yks tyttö ...      niinku makaroonia ...
   Mut en tietenkään ...    kundien edes olla ...    vaikka maikka olis ...   takapulpeteis alko ...
   Lippa takana ja ...      rytmi oli 90 bpm         niin ku Jordanin ...     teki vaan mun ...

   1 2 3 4   1 2 3 4   1 2 3 4   1 2 3 4   1 2 3 4
e|---------|---------|---------|---------|---------|
B|---------|---------|---------|---------|---------|
G|---------|---------|---------|---------|---------|  (rest for 5 bars)
D|---------|---------|---------|---------|---------|
A|---------|---------|---------|---------|---------|
E|---------|---------|---------|---------|---------|
Mut sit se muutti faijan työn perään ja vei mun sydämestä palasen, voi hoppariraukkaa
Luulin ettei sydän ikin lyö enää, mä tiiän edelleenki tänää mistä Robbari laulaa ....    Mun


[Chorus]
   1  +  2  +  3  +  4  +   1  +  2  +  3  +  4  +   1  +  2  +  3  +  4  +   1  +  2  +  3  +  4  +
   E                        B                        C#m                      A
e|-7--7--7--7--7--7--7--7-|-7--7--7--7--7--7--7--7-|-4--4--4--4--4--4--4--4-|-5--5--5--5--5--5--5--5-|
B|-5--5--5--5--5--5--5--5-|-4--4--4--4--4--4--4--4-|-2--2--2--2--2--2--2--2-|-2--2--2--2--2--2--2--2-|
G|------------------------|------------------------|------------------------|------------------------|
D|------------------------|------------------------|------------------------|------------------------|  (x6)
A|------------------------|------------------------|------------------------|------------------------|
E|------------------------|------------------------|------------------------|------------------------|
   sy  - sy  - sydämestä    puut-tuu    pa-lanen ja  uu    uu se on sun näköinen                  Mun
   sy  - sy  - sydämestä    puut-tuu    pa-lanen ja  uu    uu sä voisit täyttää sen             Oot mun
   puut-tu-va  pa-la -- nen                     mun  puut-tu-va  pa-la -- nen                     Mun
   sy  - sy  - sydämestä    puut-tuu    pa-lanen ja  uu    uu se on sun näköinen                  Mun
   sy  - sy  - sydämestä    puut-tuu    pa-lanen ja  uu    uu sä voisit täyttää sen             Oot mun
   puut-tu-va  pa-la -- nen                     mun  puut-tu-va  pa-la -- nen

            
            
Suggest correction
Creating personal tab
Creating personal tab
You can edit any tab online and save it as your Personal.

You can edit, replace or remove any tab part or add personal notes – all changes will be seen only by you.

Personal tabs can be accessed anytime from any device, even offline.
Learn more »
Give kudos to tab author, rate the tab!
1 2 3 4 5
comments
print report bad tab
guest
You may want to rate the tab now too:
select rating
Wanna post a correction for this tab? Suggest correction