Oops, an error
Loading. Please wait.

Se Tunne Kun tab

4 views 4 this week
no commentswrite comment
1 2 3 4 5
3 more votes to show rating
add to favorites
×
Save as Personal and add changes to this tab that will be seen only by you. Learn more ›
×
You can save this tab as Personal to edit and correct it or add notes. All changes will be seen only by you. Learn more »
launch autoscroll
font size
0
reset
how to read this tab
guitar tuner
edit
Autoscroll
slow
fast
+/-
esc
set tempo
stop
[Intro]
   Am           F
e|--------------------------|
B|--------------------------|
G|-----------------2--------|
D|-5--4---------1-----------|
A|--------------------------|
E|-5--5---------0--1--------|

[Verse 1]
   Am                        F
e|-----------------------------------------|
B|-----------------------------------------|
G|--------------------------------2--------|
D|-5--4----------------------1-------------|  (x3)
A|-----------------------------------------|
E|-5--5----------------------0----1--------|
   Hei  kerro mistä me       tunnetaan   Kun
   sä näytät jotenkin niin   tutulta
   Ollaanks me nähty jollain festareil   Vai

   Am                     Am
e|--------------------------------------|
B|--------------------------------------|
G|--------------------------------------|
D|-5--4-------------------5--4----------|
A|--------------------------------------|
E|-5--5-------------------5--5----------|
   miks mul on fiilis, on oltu näin aina

[Chorus]
   C                     Em
Se tunne kun sä hyppäät, etkä tiedä mihin törmäät
   Am                           G
Et todellisuudesta tajua mitään
   C                       Em
Se tunne kun sua huimaa ja hulluu sydän hakkaa
   F
Mä tiesin sen heti kun vastaan sua kävelin

                                  Am
                               e|-----------|
                               B|-----------|
                               G|-----------|
                               D|-5--4------|
                               A|-----------|
G                              E|-5--5------|
Pelkästä katseesta hypnoosiin vajosin

[Verse 2]
   Am                        F
e|-----------------------------------------|
B|-----------------------------------------|
G|--------------------------------2--------|
D|-5--4----------------------1-------------|  (x3)
A|-----------------------------------------|
E|-5--5----------------------0----1--------|
   Hei, jos sä veisit mut    jonnekin
En tiedä haluisinko enää     takaisin
  Sun kaa mä vapaammin       hengitän

   Am                     Am
e|--------------------------------------|
B|--------------------------------------|
G|--------------------------------------|
D|-5--4--------5--4-------5--4----------|
A|--------------------------------------|
E|-5--5--------5--5-------5--5----------|
Ja taas mul on fiilis, on oltu näin aina

[Chorus]
   C                     Em
Se tunne kun sä hyppäät, etkä tiedä mihin törmäät
   Am                           G
Et todellisuudesta tajua mitään
   C                       Em
Se tunne kun sua huimaa ja hulluu sydän hakkaa
   F
Mä tiesin sen heti kun vastaan sua kävelin
G                                 C
Pelkästä katseesta hypnoosiin vajosin

         Em               Am    G
Ja mä en pelkää pudota tyhjään
C               Em                         F  G
   Et säkään pelkää, mä nään sen sun silmistä

[Rap Verse]
N.C.
  Ay yo pikkubroidi, aa

   Am                                               F
e|----------------------------------------------------------------------------------------------------|
B|----------------------------------------------------------------------------------------------------|
G|---------------------------------------------------------------2------------------------------------|
D|-5----------4-------------------------------------1-------------------------------------------------|  (x4)
A|----------------------------------------------------------------------------------------------------|
E|-5----------5-------------------------------------0------------1------------------------------------|
Nä näytän sun suunnan, sä voit vaan kulkee sen voin avata sun    silmät mut ainoastaan sä voit sulkee ne
   Ja vanhan minän voit vaik hyvästellä (ellä)     miten sä voit vihaa jotain mitä mul on sydämellä
      Ei,        se ei toimi                        niin kun nään ihmisii tippuvan, takas poimin niit
      Nii,       no nii sen pitäs mennäki ja        mieti miks ja minne maailma mut sen takii lennätti

[Chorus]
   C                     Em
Se tunne kun sä hyppäät, etkä tiedä mihin törmäät
   Am                           G
Et todellisuudesta tajua mitään
   C                       Em
Se tunne kun sua huimaa ja hulluu sydän hakkaa
   F
Mä tiesin sen heti kun vastaan sua kävelin
G                                 C
Pelkästä katseesta hypnoosiin vajosin

         Em               Am    G
Ja mä en pelkää pudota tyhjään
C               Em                         F  G
   Et säkään pelkää, mä nään sen sun silmistä

[Outro]
N.C.
Suggest correction
Creating personal tab
Creating personal tab
You can edit any tab online and save it as your Personal.

You can edit, replace or remove any tab part or add personal notes – all changes will be seen only by you.

Personal tabs can be accessed anytime from any device, even offline.
Learn more »
Give kudos to tab author, rate the tab!
1 2 3 4 5
comments
print report bad tab
guest
You may want to rate the tab now too:
select rating
Wanna post a correction for this tab? Suggest correction